  0
SECTION
  2
HEADER
  9
$LIMMIN
 10
-135.459839
 20
364.543518
  9
$LIMMAX
 10
-84.847466
 20
376.543518
  9
$EXTMIN
 10
-135.459839
 20
364.543518
  9
$EXTMAX
 10
-84.847466
 20
376.543518
  0
ENDSEC
  0
SECTION
  2
TABLES
  0
TABLE
  2
LTYPE
 70
     3
  0
LTYPE
  2
CONTINUOUS
 70
    64
  3
Ausgezogene Linie
 72
    65
 73
     0
 40
0.0
  0
LTYPE
  2
DASHED
 70
    64
  3
__ __ __ __ __ __ __ __ __ __ __ __ __ __ __
 72
    65
 73
     2
 40
0.75
 49
0.5
 49
-0.25
  0
LTYPE
  2
DASHDOT
 70
    64
  3
__ . __ . __ . __ . __ . __ . __ . __ . __ . __
 72
    65
 73
     4
 40
1.0
 49
0.5
 49
-0.25
 49
0.0
 49
-0.25
  0
ENDTAB
  0
TABLE
  2
LAYER
 70
     4
  0
LAYER
  2
LC-003-002-----0
 70
    64
 62
     7
  6
CONTINUOUS
  0
LAYER
  2
LC-004-006-----0
 70
    64
 62
     7
  6
CONTINUOUS
  0
LAYER
  2
LC-006-012-----0
 70
    64
 62
     7
  6
CONTINUOUS
  0
LAYER
  2
LC-007-004-----0
 70
    64
 62
     7
  6
CONTINUOUS
  0
ENDTAB
  0
TABLE
  2
STYLE
 70
     1
  0
STYLE
  2
TXT8
 70
    64
 40
0.0
 41
1.0
 50
0.0
 71
     0
 42
3.500000
  3
TXT8
  4

  0
ENDTAB
  0
ENDSEC
  0
SECTION
  2
BLOCKS
  0
ENDSEC
  0
SECTION
  2
ENTITIES
  0
LINE
  8
LC-004-006-----0
 62
     2
  6
DASHDOT
 10
-135.459839
 20
370.543518
 11
-84.847466
 21
370.543518
  0
LINE
  8
LC-003-002-----0
 62
     1
  6
CONTINUOUS
 10
-120.624023
 20
376.543518
 11
-117.224022
 21
376.543518
  0
LINE
  8
LC-003-002-----0
 62
     1
  6
CONTINUOUS
 10
-120.624023
 20
364.543518
 11
-117.224022
 21
364.543518
  0
LINE
  8
LC-003-002-----0
 62
     1
  6
CONTINUOUS
 10
-121.124023
 20
371.043518
 11
-121.124023
 21
376.043518
  0
LINE
  8
LC-003-002-----0
 62
     1
  6
CONTINUOUS
 10
-121.124023
 20
365.043518
 11
-121.124023
 21
370.043518
  0
LINE
  8
LC-003-002-----0
 62
     1
  6
CONTINUOUS
 10
-99.124023
 20
371.043518
 11
-99.124023
 21
376.043518
  0
LINE
  8
LC-003-002-----0
 62
     1
  6
CONTINUOUS
 10
-99.124023
 20
365.043518
 11
-99.124023
 21
370.043518
  0
LINE
  8
LC-003-002-----0
 62
     1
  6
CONTINUOUS
 10
-134.073425
 20
373.043518
 11
-121.124023
 21
373.043518
  0
LINE
  8
LC-003-002-----0
 62
     1
  6
CONTINUOUS
 10
-104.124023
 20
371.043518
 11
-104.124023
 21
376.543518
  0
LINE
  8
LC-003-002-----0
 62
     1
  6
CONTINUOUS
 10
-104.124023
 20
364.543518
 11
-104.124023
 21
370.043518
  0
LINE
  8
LC-003-002-----0
 62
     1
  6
CONTINUOUS
 10
-103.024025
 20
371.043518
 11
-103.024025
 21
376.543518
  0
LINE
  8
LC-003-002-----0
 62
     1
  6
CONTINUOUS
 10
-103.024025
 20
364.543518
 11
-103.024025
 21
370.043518
  0
LINE
  8
LC-003-002-----0
 62
     1
  6
CONTINUOUS
 10
-116.124023
 20
371.043518
 11
-116.124023
 21
376.543518
  0
LINE
  8
LC-003-002-----0
 62
     1
  6
CONTINUOUS
 10
-116.124023
 20
364.543518
 11
-116.124023
 21
370.043518
  0
LINE
  8
LC-003-002-----0
 62
     1
  6
CONTINUOUS
 10
-117.224022
 20
371.043518
 11
-117.224022
 21
376.543518
  0
LINE
  8
LC-003-002-----0
 62
     1
  6
CONTINUOUS
 10
-117.224022
 20
364.543518
 11
-117.224022
 21
370.043518
  0
LINE
  8
LC-003-002-----0
 62
     1
  6
CONTINUOUS
 10
-116.124023
 20
376.543518
 11
-104.124023
 21
376.543518
  0
LINE
  8
LC-003-002-----0
 62
     1
  6
CONTINUOUS
 10
-116.124023
 20
364.543518
 11
-104.124023
 21
364.543518
  0
LINE
  8
LC-003-002-----0
 62
     1
  6
CONTINUOUS
 10
-103.024025
 20
364.543518
 11
-99.624023
 21
364.543518
  0
LINE
  8
LC-003-002-----0
 62
     1
  6
CONTINUOUS
 10
-103.024025
 20
376.543518
 11
-99.624023
 21
376.543518
  0
LINE
  8
LC-003-002-----0
 62
     1
  6
CONTINUOUS
 10
-134.073425
 20
368.043518
 11
-121.124023
 21
368.043518
  0
LINE
  8
LC-007-004-----0
 62
     2
  6
CONTINUOUS
 10
-134.073425
 20
368.043518
 11
-133.238464
 21
369.659302
  0
LINE
  8
LC-003-002-----0
 62
     1
  6
CONTINUOUS
 10
-104.124023
 20
376.293518
 11
-103.024025
 21
376.293518
  0
LINE
  8
LC-003-002-----0
 62
     1
  6
CONTINUOUS
 10
-104.124023
 20
364.793518
 11
-103.024025
 21
364.793518
  0
LINE
  8
LC-003-002-----0
 62
     1
  6
CONTINUOUS
 10
-117.224022
 20
364.793518
 11
-116.124023
 21
364.793518
  0
LINE
  8
LC-003-002-----0
 62
     1
  6
CONTINUOUS
 10
-117.224022
 20
376.293518
 11
-116.124023
 21
376.293518
  0
LINE
  8
LC-007-004-----0
 62
     2
  6
CONTINUOUS
 10
-133.238464
 20
369.659302
 11
-133.998413
 21
371.867767
  0
LINE
  8
LC-007-004-----0
 62
     2
  6
CONTINUOUS
 10
-133.998413
 20
371.867767
 11
-134.073425
 21
373.043518
  0
LINE
  8
LC-007-004-----0
 62
     2
  6
CONTINUOUS
 10
-86.248329
 20
368.043518
 11
-85.806152
 21
369.584473
  0
LINE
  8
LC-007-004-----0
 62
     2
  6
CONTINUOUS
 10
-85.806152
 20
369.584473
 11
-86.714195
 21
371.568542
  0
LINE
  8
LC-007-004-----0
 62
     2
  6
CONTINUOUS
 10
-86.714195
 20
371.568542
 11
-86.629616
 21
373.043518
  0
LINE
  8
LC-006-012-----0
 62
     2
  6
DASHED
 10
-121.124023
 20
373.043518
 11
-99.124023
 21
373.043518
  0
LINE
  8
LC-003-002-----0
 62
     1
  6
CONTINUOUS
 10
-99.124023
 20
373.043518
 11
-86.629616
 21
373.043518
  0
LINE
  8
LC-006-012-----0
 62
     2
  6
DASHED
 10
-121.124023
 20
368.043518
 11
-99.124023
 21
368.043518
  0
LINE
  8
LC-003-002-----0
 62
     1
  6
CONTINUOUS
 10
-99.124023
 20
368.043518
 11
-86.248329
 21
368.043518
  0
ARC
  8
LC-003-002-----0
 62
     1
  6
CONTINUOUS
 10
-120.624023
 20
365.043518
 40
0.500000
 50
180.000009
 51
269.999997
  0
ARC
  8
LC-003-002-----0
 62
     1
  6
CONTINUOUS
 10
-120.624023
 20
376.043518
 40
0.500000
 50
90.000003
 51
180.000009
  0
ARC
  8
LC-003-002-----0
 62
     1
  6
CONTINUOUS
 10
-99.624023
 20
376.043518
 40
0.500000
 50
0.000000
 51
90.000003
  0
ARC
  8
LC-003-002-----0
 62
     1
  6
CONTINUOUS
 10
-99.624023
 20
365.043518
 40
0.500000
 50
269.999997
 51
0.000000
  0
LINE
  8
LC-003-002-----0
 62
     1
  6
CONTINUOUS
 10
-121.124023
 20
371.043518
 11
-99.124023
 21
371.043518
  0
LINE
  8
LC-003-002-----0
 62
     1
  6
CONTINUOUS
 10
-121.124023
 20
370.043518
 11
-99.124023
 21
370.043518
  0
ENDSEC
  0
EOF
