  0
SECTION
  2
HEADER
  9
$LIMMIN
 10
17.120577
 20
81.137772
  9
$LIMMAX
 10
148.495193
 20
128.137787
  9
$EXTMIN
 10
17.120577
 20
81.137772
  9
$EXTMAX
 10
148.495193
 20
128.137787
  0
ENDSEC
  0
SECTION
  2
TABLES
  0
TABLE
  2
LTYPE
 70
     3
  0
LTYPE
  2
CONTINUOUS
 70
    64
  3
Ausgezogene Linie
 72
    65
 73
     0
 40
0.0
  0
LTYPE
  2
DASHED
 70
    64
  3
__ __ __ __ __ __ __ __ __ __ __ __ __ __ __
 72
    65
 73
     2
 40
0.75
 49
0.5
 49
-0.25
  0
LTYPE
  2
DASHDOT
 70
    64
  3
__ . __ . __ . __ . __ . __ . __ . __ . __ . __
 72
    65
 73
     4
 40
1.0
 49
0.5
 49
-0.25
 49
0.0
 49
-0.25
  0
ENDTAB
  0
TABLE
  2
LAYER
 70
     4
  0
LAYER
  2
LC-003-002-----0
 70
    64
 62
     7
  6
CONTINUOUS
  0
LAYER
  2
LC-004-006-----0
 70
    64
 62
     7
  6
CONTINUOUS
  0
LAYER
  2
LC-006-012-----0
 70
    64
 62
     7
  6
CONTINUOUS
  0
LAYER
  2
LC-007-004-----0
 70
    64
 62
     7
  6
CONTINUOUS
  0
ENDTAB
  0
TABLE
  2
STYLE
 70
     1
  0
STYLE
  2
TXT8
 70
    64
 40
0.0
 41
1.0
 50
0.0
 71
     0
 42
3.500000
  3
TXT8
  4

  0
ENDTAB
  0
ENDSEC
  0
SECTION
  2
BLOCKS
  0
ENDSEC
  0
SECTION
  2
ENTITIES
  0
LINE
  8
LC-004-006-----0
 62
     2
  6
DASHDOT
 10
17.120577
 20
104.637779
 11
148.495193
 21
104.637779
  0
LINE
  8
LC-003-002-----0
 62
     1
  6
CONTINUOUS
 10
50.324039
 20
128.137787
 11
57.474041
 21
128.137787
  0
LINE
  8
LC-003-002-----0
 62
     1
  6
CONTINUOUS
 10
50.324039
 20
81.137779
 11
57.474041
 21
81.137779
  0
LINE
  8
LC-003-002-----0
 62
     1
  6
CONTINUOUS
 10
49.324039
 20
103.637779
 11
49.324039
 21
82.137779
  0
LINE
  8
LC-003-002-----0
 62
     1
  6
CONTINUOUS
 10
49.324039
 20
127.137779
 11
49.324039
 21
105.637779
  0
LINE
  8
LC-003-002-----0
 62
     1
  6
CONTINUOUS
 10
117.324043
 20
103.637779
 11
117.324043
 21
82.137779
  0
LINE
  8
LC-003-002-----0
 62
     1
  6
CONTINUOUS
 10
117.324043
 20
127.137779
 11
117.324043
 21
105.637779
  0
LINE
  8
LC-003-002-----0
 62
     1
  6
CONTINUOUS
 10
23.709339
 20
119.637779
 11
49.324039
 21
119.637779
  0
LINE
  8
LC-003-002-----0
 62
     1
  6
CONTINUOUS
 10
22.417620
 20
89.637779
 11
49.324039
 21
89.637779
  0
LINE
  8
LC-007-004-----0
 62
     2
  6
CONTINUOUS
 10
22.417620
 20
89.637779
 11
23.816116
 21
94.674713
  0
LINE
  8
LC-007-004-----0
 62
     2
  6
CONTINUOUS
 10
23.816116
 20
94.674713
 11
21.381634
 21
111.243347
  0
LINE
  8
LC-007-004-----0
 62
     2
  6
CONTINUOUS
 10
21.381634
 20
111.243347
 11
23.709339
 21
119.637779
  0
LINE
  8
LC-007-004-----0
 62
     2
  6
CONTINUOUS
 10
143.548950
 20
89.637779
 11
144.742035
 21
97.178261
  0
LINE
  8
LC-007-004-----0
 62
     2
  6
CONTINUOUS
 10
144.742035
 20
97.178261
 11
141.916306
 21
110.408829
  0
LINE
  8
LC-007-004-----0
 62
     2
  6
CONTINUOUS
 10
141.916306
 20
110.408829
 11
142.858948
 21
119.637779
  0
LINE
  8
LC-006-012-----0
 62
     2
  6
DASHED
 10
49.324039
 20
119.637779
 11
117.324043
 21
119.637779
  0
LINE
  8
LC-003-002-----0
 62
     1
  6
CONTINUOUS
 10
117.324043
 20
119.637779
 11
142.858948
 21
119.637779
  0
LINE
  8
LC-006-012-----0
 62
     2
  6
DASHED
 10
49.324039
 20
89.637779
 11
117.324043
 21
89.637779
  0
LINE
  8
LC-003-002-----0
 62
     1
  6
CONTINUOUS
 10
117.324043
 20
89.637779
 11
143.548950
 21
89.637779
  0
LINE
  8
LC-003-002-----0
 62
     1
  6
CONTINUOUS
 10
57.474041
 20
82.637779
 11
59.324039
 21
82.637779
  0
LINE
  8
LC-003-002-----0
 62
     1
  6
CONTINUOUS
 10
107.324043
 20
103.637779
 11
107.324043
 21
81.137772
  0
LINE
  8
LC-003-002-----0
 62
     1
  6
CONTINUOUS
 10
107.324043
 20
128.137787
 11
107.324043
 21
105.637779
  0
LINE
  8
LC-003-002-----0
 62
     1
  6
CONTINUOUS
 10
59.324039
 20
103.637779
 11
59.324039
 21
81.137772
  0
LINE
  8
LC-003-002-----0
 62
     1
  6
CONTINUOUS
 10
59.324039
 20
128.137787
 11
59.324039
 21
105.637779
  0
LINE
  8
LC-003-002-----0
 62
     1
  6
CONTINUOUS
 10
109.174042
 20
103.637779
 11
109.174042
 21
81.137772
  0
LINE
  8
LC-003-002-----0
 62
     1
  6
CONTINUOUS
 10
109.174042
 20
128.137787
 11
109.174042
 21
105.637779
  0
LINE
  8
LC-003-002-----0
 62
     1
  6
CONTINUOUS
 10
57.474041
 20
103.637779
 11
57.474041
 21
81.137772
  0
LINE
  8
LC-003-002-----0
 62
     1
  6
CONTINUOUS
 10
57.474041
 20
128.137787
 11
57.474041
 21
105.637779
  0
LINE
  8
LC-003-002-----0
 62
     1
  6
CONTINUOUS
 10
59.324039
 20
81.137779
 11
107.324043
 21
81.137779
  0
LINE
  8
LC-003-002-----0
 62
     1
  6
CONTINUOUS
 10
109.174042
 20
81.137779
 11
116.324043
 21
81.137779
  0
LINE
  8
LC-003-002-----0
 62
     1
  6
CONTINUOUS
 10
109.174042
 20
128.137787
 11
116.324043
 21
128.137787
  0
LINE
  8
LC-003-002-----0
 62
     1
  6
CONTINUOUS
 10
59.324039
 20
128.137787
 11
107.324043
 21
128.137787
  0
LINE
  8
LC-003-002-----0
 62
     1
  6
CONTINUOUS
 10
57.474041
 20
126.637779
 11
59.324039
 21
126.637779
  0
LINE
  8
LC-003-002-----0
 62
     1
  6
CONTINUOUS
 10
107.324043
 20
126.637779
 11
109.174042
 21
126.637779
  0
LINE
  8
LC-003-002-----0
 62
     1
  6
CONTINUOUS
 10
107.324043
 20
82.637779
 11
109.174042
 21
82.637779
  0
ARC
  8
LC-003-002-----0
 62
     1
  6
CONTINUOUS
 10
50.324039
 20
127.137779
 40
1.000000
 50
90.000003
 51
180.000009
  0
ARC
  8
LC-003-002-----0
 62
     1
  6
CONTINUOUS
 10
50.324039
 20
82.137779
 40
1.000000
 50
180.000009
 51
269.999997
  0
ARC
  8
LC-003-002-----0
 62
     1
  6
CONTINUOUS
 10
116.324043
 20
127.137779
 40
1.000000
 50
0.000000
 51
90.000003
  0
ARC
  8
LC-003-002-----0
 62
     1
  6
CONTINUOUS
 10
116.324043
 20
82.137779
 40
1.000000
 50
269.999997
 51
0.000000
  0
LINE
  8
LC-003-002-----0
 62
     1
  6
CONTINUOUS
 10
49.324039
 20
105.637779
 11
117.324043
 21
105.637779
  0
LINE
  8
LC-003-002-----0
 62
     1
  6
CONTINUOUS
 10
49.324039
 20
103.637779
 11
117.324043
 21
103.637779
  0
ENDSEC
  0
EOF
