  0
SECTION
  2
HEADER
  9
$LIMMIN
 10
18.559254
 20
215.065262
  9
$LIMMAX
 10
134.498444
 20
255.065262
  9
$EXTMIN
 10
18.559254
 20
215.065262
  9
$EXTMAX
 10
134.498444
 20
255.065262
  0
ENDSEC
  0
SECTION
  2
TABLES
  0
TABLE
  2
LTYPE
 70
     3
  0
LTYPE
  2
CONTINUOUS
 70
    64
  3
Ausgezogene Linie
 72
    65
 73
     0
 40
0.0
  0
LTYPE
  2
DASHED
 70
    64
  3
__ __ __ __ __ __ __ __ __ __ __ __ __ __ __
 72
    65
 73
     2
 40
0.75
 49
0.5
 49
-0.25
  0
LTYPE
  2
DASHDOT
 70
    64
  3
__ . __ . __ . __ . __ . __ . __ . __ . __ . __
 72
    65
 73
     4
 40
1.0
 49
0.5
 49
-0.25
 49
0.0
 49
-0.25
  0
ENDTAB
  0
TABLE
  2
LAYER
 70
     4
  0
LAYER
  2
LC-003-002-----0
 70
    64
 62
     7
  6
CONTINUOUS
  0
LAYER
  2
LC-004-006-----0
 70
    64
 62
     7
  6
CONTINUOUS
  0
LAYER
  2
LC-006-012-----0
 70
    64
 62
     7
  6
CONTINUOUS
  0
LAYER
  2
LC-007-004-----0
 70
    64
 62
     7
  6
CONTINUOUS
  0
ENDTAB
  0
TABLE
  2
STYLE
 70
     1
  0
STYLE
  2
TXT8
 70
    64
 40
0.0
 41
1.0
 50
0.0
 71
     0
 42
3.500000
  3
TXT8
  4

  0
ENDTAB
  0
ENDSEC
  0
SECTION
  2
BLOCKS
  0
ENDSEC
  0
SECTION
  2
ENTITIES
  0
LINE
  8
LC-004-006-----0
 62
     2
  6
DASHDOT
 10
18.559254
 20
235.065262
 11
134.498444
 21
235.065262
  0
LINE
  8
LC-003-002-----0
 62
     1
  6
CONTINUOUS
 10
50.324039
 20
255.065262
 11
56.474041
 21
255.065262
  0
LINE
  8
LC-003-002-----0
 62
     1
  6
CONTINUOUS
 10
50.324039
 20
215.065262
 11
56.474041
 21
215.065262
  0
LINE
  8
LC-003-002-----0
 62
     1
  6
CONTINUOUS
 10
49.324039
 20
216.065262
 11
49.324039
 21
254.065262
  0
LINE
  8
LC-003-002-----0
 62
     1
  6
CONTINUOUS
 10
107.324043
 20
216.065262
 11
107.324043
 21
254.065262
  0
LINE
  8
LC-003-002-----0
 62
     1
  6
CONTINUOUS
 10
24.329754
 20
247.565262
 11
49.324039
 21
247.565262
  0
LINE
  8
LC-003-002-----0
 62
     1
  6
CONTINUOUS
 10
23.409475
 20
222.565262
 11
49.324039
 21
222.565262
  0
LINE
  8
LC-007-004-----0
 62
     2
  6
CONTINUOUS
 10
23.409475
 20
222.565262
 11
24.929857
 21
228.301773
  0
LINE
  8
LC-007-004-----0
 62
     2
  6
CONTINUOUS
 10
24.929857
 20
228.301773
 11
23.344044
 21
241.696564
  0
LINE
  8
LC-007-004-----0
 62
     2
  6
CONTINUOUS
 10
23.344044
 20
241.696564
 11
24.329754
 21
247.565262
  0
LINE
  8
LC-007-004-----0
 62
     2
  6
CONTINUOUS
 10
127.998444
 20
222.565262
 11
129.002762
 21
229.745132
  0
LINE
  8
LC-007-004-----0
 62
     2
  6
CONTINUOUS
 10
129.002762
 20
229.745132
 11
126.528343
 21
241.040482
  0
LINE
  8
LC-007-004-----0
 62
     2
  6
CONTINUOUS
 10
126.528343
 20
241.040482
 11
127.126854
 21
247.565262
  0
LINE
  8
LC-006-012-----0
 62
     2
  6
DASHED
 10
49.324039
 20
247.565262
 11
107.324043
 21
247.565262
  0
LINE
  8
LC-003-002-----0
 62
     1
  6
CONTINUOUS
 10
107.324043
 20
247.565262
 11
127.126854
 21
247.565262
  0
LINE
  8
LC-006-012-----0
 62
     2
  6
DASHED
 10
49.324039
 20
222.565262
 11
107.324043
 21
222.565262
  0
LINE
  8
LC-003-002-----0
 62
     1
  6
CONTINUOUS
 10
107.324043
 20
222.565262
 11
127.998444
 21
222.565262
  0
LINE
  8
LC-003-002-----0
 62
     1
  6
CONTINUOUS
 10
98.324043
 20
235.065262
 11
98.324043
 21
255.065262
  0
LINE
  8
LC-003-002-----0
 62
     1
  6
CONTINUOUS
 10
98.324043
 20
215.065262
 11
98.324043
 21
235.065262
  0
LINE
  8
LC-003-002-----0
 62
     1
  6
CONTINUOUS
 10
58.324039
 20
235.065262
 11
58.324039
 21
255.065262
  0
LINE
  8
LC-003-002-----0
 62
     1
  6
CONTINUOUS
 10
58.324039
 20
215.065262
 11
58.324039
 21
235.065262
  0
LINE
  8
LC-003-002-----0
 62
     1
  6
CONTINUOUS
 10
100.174042
 20
235.065262
 11
100.174042
 21
255.065262
  0
LINE
  8
LC-003-002-----0
 62
     1
  6
CONTINUOUS
 10
100.174042
 20
215.065262
 11
100.174042
 21
235.065262
  0
LINE
  8
LC-003-002-----0
 62
     1
  6
CONTINUOUS
 10
56.474041
 20
235.065262
 11
56.474041
 21
255.065262
  0
LINE
  8
LC-003-002-----0
 62
     1
  6
CONTINUOUS
 10
56.474041
 20
215.065262
 11
56.474041
 21
235.065262
  0
LINE
  8
LC-003-002-----0
 62
     1
  6
CONTINUOUS
 10
58.324039
 20
255.065262
 11
98.324043
 21
255.065262
  0
LINE
  8
LC-003-002-----0
 62
     1
  6
CONTINUOUS
 10
58.324039
 20
215.065262
 11
98.324043
 21
215.065262
  0
LINE
  8
LC-003-002-----0
 62
     1
  6
CONTINUOUS
 10
100.174042
 20
215.065262
 11
106.324043
 21
215.065262
  0
LINE
  8
LC-003-002-----0
 62
     1
  6
CONTINUOUS
 10
100.174042
 20
255.065262
 11
106.324043
 21
255.065262
  0
LINE
  8
LC-003-002-----0
 62
     1
  6
CONTINUOUS
 10
56.474041
 20
253.815262
 11
58.324039
 21
253.815262
  0
LINE
  8
LC-003-002-----0
 62
     1
  6
CONTINUOUS
 10
98.324043
 20
253.815262
 11
100.174042
 21
253.815262
  0
LINE
  8
LC-003-002-----0
 62
     1
  6
CONTINUOUS
 10
98.324043
 20
216.315262
 11
100.174042
 21
216.315262
  0
LINE
  8
LC-003-002-----0
 62
     1
  6
CONTINUOUS
 10
56.474041
 20
216.315262
 11
58.324039
 21
216.315262
  0
ARC
  8
LC-003-002-----0
 62
     1
  6
CONTINUOUS
 10
50.324039
 20
254.065262
 40
1.000000
 50
90.000003
 51
180.000009
  0
ARC
  8
LC-003-002-----0
 62
     1
  6
CONTINUOUS
 10
50.324039
 20
216.065262
 40
1.000000
 50
180.000009
 51
269.999997
  0
ARC
  8
LC-003-002-----0
 62
     1
  6
CONTINUOUS
 10
106.324043
 20
216.065262
 40
1.000000
 50
269.999997
 51
0.000000
  0
ARC
  8
LC-003-002-----0
 62
     1
  6
CONTINUOUS
 10
106.324043
 20
254.065262
 40
1.000000
 50
0.000000
 51
90.000003
  0
ENDSEC
  0
EOF
