  0
SECTION
  2
HEADER
  9
$LIMMIN
 10
-145.050201
 20
-98.466278
  9
$LIMMAX
 10
-59.096413
 20
-72.466278
  9
$EXTMIN
 10
-145.050201
 20
-98.466278
  9
$EXTMAX
 10
-59.096413
 20
-72.466278
  0
ENDSEC
  0
SECTION
  2
TABLES
  0
TABLE
  2
LTYPE
 70
     3
  0
LTYPE
  2
CONTINUOUS
 70
    64
  3
Ausgezogene Linie
 72
    65
 73
     0
 40
0.0
  0
LTYPE
  2
DASHED
 70
    64
  3
__ __ __ __ __ __ __ __ __ __ __ __ __ __ __
 72
    65
 73
     2
 40
0.75
 49
0.5
 49
-0.25
  0
LTYPE
  2
DASHDOT
 70
    64
  3
__ . __ . __ . __ . __ . __ . __ . __ . __ . __
 72
    65
 73
     4
 40
1.0
 49
0.5
 49
-0.25
 49
0.0
 49
-0.25
  0
ENDTAB
  0
TABLE
  2
LAYER
 70
     4
  0
LAYER
  2
LC-003-002-----0
 70
    64
 62
     7
  6
CONTINUOUS
  0
LAYER
  2
LC-004-006-----0
 70
    64
 62
     7
  6
CONTINUOUS
  0
LAYER
  2
LC-006-012-----0
 70
    64
 62
     7
  6
CONTINUOUS
  0
LAYER
  2
LC-007-004-----0
 70
    64
 62
     7
  6
CONTINUOUS
  0
ENDTAB
  0
TABLE
  2
STYLE
 70
     1
  0
STYLE
  2
TXT8
 70
    64
 40
0.0
 41
1.0
 50
0.0
 71
     0
 42
3.500000
  3
TXT8
  4

  0
ENDTAB
  0
ENDSEC
  0
SECTION
  2
BLOCKS
  0
ENDSEC
  0
SECTION
  2
ENTITIES
  0
LINE
  8
LC-004-006-----0
 62
     2
  6
DASHDOT
 10
-145.050201
 20
-85.466278
 11
-59.096413
 21
-85.466278
  0
LINE
  8
LC-003-002-----0
 62
     1
  6
CONTINUOUS
 10
-119.097755
 20
-72.466278
 11
-114.147751
 21
-72.466278
  0
LINE
  8
LC-003-002-----0
 62
     1
  6
CONTINUOUS
 10
-119.097755
 20
-98.466278
 11
-114.147751
 21
-98.466278
  0
LINE
  8
LC-003-002-----0
 62
     1
  6
CONTINUOUS
 10
-119.847755
 20
-97.716278
 11
-119.847755
 21
-73.216278
  0
LINE
  8
LC-003-002-----0
 62
     1
  6
CONTINUOUS
 10
-83.847755
 20
-97.716278
 11
-83.847755
 21
-73.216278
  0
LINE
  8
LC-003-002-----0
 62
     1
  6
CONTINUOUS
 10
-140.992874
 20
-77.466278
 11
-119.847748
 21
-77.466278
  0
LINE
  8
LC-003-002-----0
 62
     1
  6
CONTINUOUS
 10
-141.704102
 20
-93.466278
 11
-119.847755
 21
-93.466278
  0
LINE
  8
LC-007-004-----0
 62
     2
  6
CONTINUOUS
 10
-141.704102
 20
-93.466278
 11
-140.718079
 21
-89.375977
  0
LINE
  8
LC-007-004-----0
 62
     2
  6
CONTINUOUS
 10
-140.718079
 20
-89.375977
 11
-141.829330
 21
-80.604759
  0
LINE
  8
LC-007-004-----0
 62
     2
  6
CONTINUOUS
 10
-141.829330
 20
-80.604759
 11
-140.992874
 21
-77.466278
  0
LINE
  8
LC-007-004-----0
 62
     2
  6
CONTINUOUS
 10
-63.660145
 20
-93.466278
 11
-63.110733
 21
-88.797195
  0
LINE
  8
LC-007-004-----0
 62
     2
  6
CONTINUOUS
 10
-63.110733
 20
-88.797195
 11
-65.014519
 21
-80.522079
  0
LINE
  8
LC-007-004-----0
 62
     2
  6
CONTINUOUS
 10
-65.014519
 20
-80.522079
 11
-64.530617
 21
-77.466278
  0
LINE
  8
LC-006-012-----0
 62
     2
  6
DASHED
 10
-119.847755
 20
-77.466278
 11
-83.847755
 21
-77.466278
  0
LINE
  8
LC-003-002-----0
 62
     1
  6
CONTINUOUS
 10
-83.847755
 20
-77.466278
 11
-64.530617
 21
-77.466278
  0
LINE
  8
LC-006-012-----0
 62
     2
  6
DASHED
 10
-119.847755
 20
-93.466278
 11
-83.847755
 21
-93.466278
  0
LINE
  8
LC-003-002-----0
 62
     1
  6
CONTINUOUS
 10
-83.847755
 20
-93.466278
 11
-63.660145
 21
-93.466278
  0
LINE
  8
LC-003-002-----0
 62
     1
  6
CONTINUOUS
 10
-112.847755
 20
-72.466278
 11
-90.847755
 21
-72.466278
  0
LINE
  8
LC-003-002-----0
 62
     1
  6
CONTINUOUS
 10
-90.847755
 20
-85.466278
 11
-90.847755
 21
-72.466278
  0
LINE
  8
LC-003-002-----0
 62
     1
  6
CONTINUOUS
 10
-90.847755
 20
-98.466278
 11
-90.847755
 21
-85.466278
  0
LINE
  8
LC-003-002-----0
 62
     1
  6
CONTINUOUS
 10
-112.847755
 20
-85.466278
 11
-112.847755
 21
-72.466278
  0
LINE
  8
LC-003-002-----0
 62
     1
  6
CONTINUOUS
 10
-112.847755
 20
-98.466278
 11
-112.847755
 21
-85.466278
  0
LINE
  8
LC-003-002-----0
 62
     1
  6
CONTINUOUS
 10
-89.547752
 20
-85.466278
 11
-89.547752
 21
-72.466278
  0
LINE
  8
LC-003-002-----0
 62
     1
  6
CONTINUOUS
 10
-89.547752
 20
-98.466278
 11
-89.547752
 21
-85.466278
  0
LINE
  8
LC-003-002-----0
 62
     1
  6
CONTINUOUS
 10
-114.147751
 20
-85.466278
 11
-114.147751
 21
-72.466278
  0
LINE
  8
LC-003-002-----0
 62
     1
  6
CONTINUOUS
 10
-114.147751
 20
-98.466278
 11
-114.147751
 21
-85.466278
  0
LINE
  8
LC-003-002-----0
 62
     1
  6
CONTINUOUS
 10
-89.547752
 20
-72.466278
 11
-84.597755
 21
-72.466278
  0
LINE
  8
LC-003-002-----0
 62
     1
  6
CONTINUOUS
 10
-89.547752
 20
-98.466278
 11
-84.597755
 21
-98.466278
  0
LINE
  8
LC-003-002-----0
 62
     1
  6
CONTINUOUS
 10
-112.847755
 20
-98.466278
 11
-90.847755
 21
-98.466278
  0
LINE
  8
LC-003-002-----0
 62
     1
  6
CONTINUOUS
 10
-114.147751
 20
-73.216278
 11
-112.847755
 21
-73.216278
  0
LINE
  8
LC-003-002-----0
 62
     1
  6
CONTINUOUS
 10
-90.847755
 20
-73.216278
 11
-89.547752
 21
-73.216278
  0
LINE
  8
LC-003-002-----0
 62
     1
  6
CONTINUOUS
 10
-90.847755
 20
-97.716278
 11
-89.547752
 21
-97.716278
  0
LINE
  8
LC-003-002-----0
 62
     1
  6
CONTINUOUS
 10
-114.147751
 20
-97.716278
 11
-112.847755
 21
-97.716278
  0
ARC
  8
LC-003-002-----0
 62
     1
  6
CONTINUOUS
 10
-119.097755
 20
-73.216278
 40
0.750000
 50
90.000003
 51
180.000009
  0
ARC
  8
LC-003-002-----0
 62
     1
  6
CONTINUOUS
 10
-119.097755
 20
-97.716278
 40
0.750000
 50
180.000009
 51
269.999997
  0
ARC
  8
LC-003-002-----0
 62
     1
  6
CONTINUOUS
 10
-84.597755
 20
-97.716278
 40
0.750000
 50
269.999997
 51
0.000000
  0
ARC
  8
LC-003-002-----0
 62
     1
  6
CONTINUOUS
 10
-84.597755
 20
-73.216278
 40
0.750000
 50
0.000000
 51
90.000003
  0
ENDSEC
  0
EOF
