  0
SECTION
  2
HEADER
  9
$LIMMIN
 10
-290.473175
 20
98.246933
  9
$LIMMAX
 10
-74.172821
 20
147.463852
  9
$EXTMIN
 10
-290.473175
 20
98.246933
  9
$EXTMAX
 10
-74.172821
 20
147.463852
  0
ENDSEC
  0
SECTION
  2
TABLES
  0
TABLE
  2
LTYPE
 70
     3
  0
LTYPE
  2
CONTINUOUS
 70
    64
  3
Ausgezogene Linie
 72
    65
 73
     0
 40
0.0
  0
LTYPE
  2
DASHED
 70
    64
  3
__ __ __ __ __ __ __ __ __ __ __ __ __ __ __
 72
    65
 73
     2
 40
0.75
 49
0.5
 49
-0.25
  0
LTYPE
  2
DASHDOT
 70
    64
  3
__ . __ . __ . __ . __ . __ . __ . __ . __ . __
 72
    65
 73
     4
 40
1.0
 49
0.5
 49
-0.25
 49
0.0
 49
-0.25
  0
ENDTAB
  0
TABLE
  2
LAYER
 70
     4
  0
LAYER
  2
LC-003-002-----0
 70
    64
 62
     7
  6
CONTINUOUS
  0
LAYER
  2
LC-004-006-----0
 70
    64
 62
     7
  6
CONTINUOUS
  0
LAYER
  2
LC-008-003-----0
 70
    64
 62
     7
  6
CONTINUOUS
  0
LAYER
  2
LC-006-012-----0
 70
    64
 62
     7
  6
CONTINUOUS
  0
ENDTAB
  0
TABLE
  2
STYLE
 70
     1
  0
STYLE
  2
TXT8
 70
    64
 40
0.0
 41
1.0
 50
0.0
 71
     0
 42
3.500000
  3
TXT8
  4

  0
ENDTAB
  0
ENDSEC
  0
SECTION
  2
BLOCKS
  0
ENDSEC
  0
SECTION
  2
ENTITIES
  0
LINE
  8
LC-004-006-----0
 62
     2
  6
DASHDOT
 10
-124.454895
 20
121.538742
 11
-74.172821
 21
121.538742
  0
LINE
  8
LC-004-006-----0
 62
     2
  6
DASHDOT
 10
-99.625427
 20
147.463852
 11
-99.625427
 21
98.246933
  0
CIRCLE
  8
LC-003-002-----0
 62
     1
  6
CONTINUOUS
 10
-99.625427
 20
121.538742
 40
12.500000
  0
ARC
  8
LC-003-002-----0
 62
     1
  6
CONTINUOUS
 10
-99.625427
 20
121.538742
 40
20.000000
 50
299.999998
 51
239.999997
  0
ARC
  8
LC-003-002-----0
 62
     1
  6
CONTINUOUS
 10
-99.625427
 20
121.538742
 40
13.000000
 50
299.999998
 51
239.999997
  0
LINE
  8
LC-003-002-----0
 62
     1
  6
CONTINUOUS
 10
-93.125427
 20
110.280418
 11
-89.625427
 21
104.218239
  0
LINE
  8
LC-003-002-----0
 62
     1
  6
CONTINUOUS
 10
-106.125427
 20
110.280418
 11
-109.625427
 21
104.218239
  0
ARC
  8
LC-003-002-----0
 62
     1
  6
CONTINUOUS
 10
-258.708374
 20
140.538742
 40
1.000000
 50
90.000003
 51
180.000009
  0
ARC
  8
LC-003-002-----0
 62
     1
  6
CONTINUOUS
 10
-258.708374
 20
105.218239
 40
1.000000
 50
180.000009
 51
269.999997
  0
ARC
  8
LC-003-002-----0
 62
     1
  6
CONTINUOUS
 10
-202.708389
 20
105.218239
 40
1.000000
 50
269.999997
 51
0.000000
  0
ARC
  8
LC-003-002-----0
 62
     1
  6
CONTINUOUS
 10
-202.708389
 20
140.538742
 40
1.000000
 50
0.000000
 51
90.000003
  0
LINE
  8
LC-004-006-----0
 62
     2
  6
DASHDOT
 10
-290.473175
 20
121.538742
 11
-174.533997
 21
121.538742
  0
LINE
  8
LC-003-002-----0
 62
     1
  6
CONTINUOUS
 10
-258.708374
 20
141.538742
 11
-252.558411
 21
141.538742
  0
LINE
  8
LC-003-002-----0
 62
     1
  6
CONTINUOUS
 10
-258.708374
 20
104.218239
 11
-252.558411
 21
104.218239
  0
LINE
  8
LC-003-002-----0
 62
     1
  6
CONTINUOUS
 10
-259.708374
 20
105.218239
 11
-259.708374
 21
140.538742
  0
LINE
  8
LC-003-002-----0
 62
     1
  6
CONTINUOUS
 10
-201.708389
 20
105.218239
 11
-201.708389
 21
140.538742
  0
LINE
  8
LC-003-002-----0
 62
     1
  6
CONTINUOUS
 10
-284.702667
 20
134.038742
 11
-259.708374
 21
134.038742
  0
LINE
  8
LC-003-002-----0
 62
     1
  6
CONTINUOUS
 10
-285.622955
 20
109.038742
 11
-259.708374
 21
109.038742
  0
LINE
  8
LC-006-012-----0
 62
     2
  6
CONTINUOUS
 10
-285.622955
 20
109.038742
 11
-284.102570
 21
114.775261
  0
LINE
  8
LC-006-012-----0
 62
     2
  6
CONTINUOUS
 10
-284.102570
 20
114.775261
 11
-285.688385
 21
128.170044
  0
LINE
  8
LC-006-012-----0
 62
     2
  6
CONTINUOUS
 10
-285.688385
 20
128.170044
 11
-284.702667
 21
134.038742
  0
LINE
  8
LC-006-012-----0
 62
     2
  6
CONTINUOUS
 10
-181.033981
 20
109.038742
 11
-180.029663
 21
116.218613
  0
LINE
  8
LC-006-012-----0
 62
     2
  6
CONTINUOUS
 10
-180.029663
 20
116.218613
 11
-182.504089
 21
127.513977
  0
LINE
  8
LC-006-012-----0
 62
     2
  6
CONTINUOUS
 10
-182.504089
 20
127.513977
 11
-181.905579
 21
134.038742
  0
LINE
  8
LC-008-003-----0
 62
     2
  6
DASHED
 10
-259.708374
 20
134.038742
 11
-201.708405
 21
134.038742
  0
LINE
  8
LC-003-002-----0
 62
     1
  6
CONTINUOUS
 10
-201.708389
 20
134.038742
 11
-181.905579
 21
134.038742
  0
LINE
  8
LC-008-003-----0
 62
     2
  6
DASHED
 10
-259.708374
 20
109.038742
 11
-201.708405
 21
109.038742
  0
LINE
  8
LC-003-002-----0
 62
     1
  6
CONTINUOUS
 10
-201.708389
 20
109.038742
 11
-181.033981
 21
109.038742
  0
LINE
  8
LC-003-002-----0
 62
     1
  6
CONTINUOUS
 10
-210.708389
 20
104.218239
 11
-210.708389
 21
141.538742
  0
LINE
  8
LC-003-002-----0
 62
     1
  6
CONTINUOUS
 10
-250.708389
 20
104.218239
 11
-250.708389
 21
141.538742
  0
LINE
  8
LC-003-002-----0
 62
     1
  6
CONTINUOUS
 10
-208.858383
 20
104.218239
 11
-208.858383
 21
141.538742
  0
LINE
  8
LC-003-002-----0
 62
     1
  6
CONTINUOUS
 10
-252.558395
 20
104.218239
 11
-252.558395
 21
141.538742
  0
LINE
  8
LC-003-002-----0
 62
     1
  6
CONTINUOUS
 10
-250.708389
 20
141.538742
 11
-210.708389
 21
141.538742
  0
LINE
  8
LC-003-002-----0
 62
     1
  6
CONTINUOUS
 10
-250.708389
 20
104.218239
 11
-210.708389
 21
104.218239
  0
LINE
  8
LC-003-002-----0
 62
     1
  6
CONTINUOUS
 10
-208.858383
 20
104.218239
 11
-202.708389
 21
104.218239
  0
LINE
  8
LC-003-002-----0
 62
     1
  6
CONTINUOUS
 10
-208.858383
 20
141.538742
 11
-202.708389
 21
141.538742
  0
LINE
  8
LC-003-002-----0
 62
     1
  6
CONTINUOUS
 10
-252.558395
 20
140.288742
 11
-250.708389
 21
140.288742
  0
LINE
  8
LC-003-002-----0
 62
     1
  6
CONTINUOUS
 10
-210.708389
 20
140.288742
 11
-208.858383
 21
140.288742
  0
LINE
  8
LC-003-002-----0
 62
     1
  6
CONTINUOUS
 10
-210.708389
 20
105.468239
 11
-208.858383
 21
105.468239
  0
LINE
  8
LC-003-002-----0
 62
     1
  6
CONTINUOUS
 10
-252.558395
 20
105.468239
 11
-250.708389
 21
105.468239
  0
ARC
  8
LC-003-002-----0
 62
     1
  6
CONTINUOUS
 10
-99.625427
 20
121.538742
 40
17.000000
 50
299.999998
 51
239.999997
  0
LINE
  8
LC-004-006-----0
 62
     2
  6
DASHDOT
 10
-122.396210
 20
120.038742
 11
-109.828964
 21
120.038742
  0
LINE
  8
LC-008-003-----0
 62
     2
  6
DASHED
 10
-118.069099
 20
120.788742
 11
-112.603775
 21
120.788742
  0
LINE
  8
LC-008-003-----0
 62
     2
  6
DASHED
 10
-118.069099
 20
119.288742
 11
-112.429237
 21
119.288742
  0
LINE
  8
LC-008-003-----0
 62
     2
  6
DASHED
 10
-119.623177
 20
121.838745
 11
-118.069099
 21
121.838745
  0
LINE
  8
LC-008-003-----0
 62
     2
  6
DASHED
 10
-119.351295
 20
118.238747
 11
-118.069099
 21
118.238747
  0
LINE
  8
LC-004-006-----0
 62
     2
  6
DASHDOT
 10
-230.708389
 20
123.786140
 11
-230.708389
 21
116.575829
  0
LINE
  8
LC-008-003-----0
 62
     2
  6
DASHED
 10
-118.069099
 20
118.238747
 11
-118.069099
 21
121.838745
  0
LINE
  8
LC-004-006-----0
 62
     2
  6
DASHDOT
 10
-234.570190
 20
120.038742
 11
-227.212570
 21
120.038742
  0
CIRCLE
  8
LC-008-003-----0
 62
     2
  6
DASHED
 10
-230.708389
 20
120.038742
 40
0.750000
  0
CIRCLE
  8
LC-008-003-----0
 62
     2
  6
DASHED
 10
-230.708389
 20
120.038742
 40
1.800000
  0
ENDSEC
  0
EOF
