  0
SECTION
  2
HEADER
  9
$LIMMIN
 10
-282.277893
 20
468.883942
  9
$LIMMAX
 10
-134.088196
 20
499.051849
  9
$EXTMIN
 10
-282.277893
 20
468.883942
  9
$EXTMAX
 10
-134.088196
 20
499.051849
  0
ENDSEC
  0
SECTION
  2
TABLES
  0
TABLE
  2
LTYPE
 70
     3
  0
LTYPE
  2
CONTINUOUS
 70
    64
  3
Ausgezogene Linie
 72
    65
 73
     0
 40
0.0
  0
LTYPE
  2
DASHED
 70
    64
  3
__ __ __ __ __ __ __ __ __ __ __ __ __ __ __
 72
    65
 73
     2
 40
0.75
 49
0.5
 49
-0.25
  0
LTYPE
  2
DASHDOT
 70
    64
  3
__ . __ . __ . __ . __ . __ . __ . __ . __ . __
 72
    65
 73
     4
 40
1.0
 49
0.5
 49
-0.25
 49
0.0
 49
-0.25
  0
ENDTAB
  0
TABLE
  2
LAYER
 70
     5
  0
LAYER
  2
LC-INFO-1-1-MM-A0-0
 70
    64
 62
     7
  6
CONTINUOUS
  0
LAYER
  2
LC-003-002-----0
 70
    64
 62
     7
  6
CONTINUOUS
  0
LAYER
  2
LC-004-006-----0
 70
    64
 62
     7
  6
CONTINUOUS
  0
LAYER
  2
LC-008-003-----0
 70
    64
 62
     7
  6
CONTINUOUS
  0
LAYER
  2
LC-006-012-----0
 70
    64
 62
     7
  6
CONTINUOUS
  0
ENDTAB
  0
TABLE
  2
STYLE
 70
     1
  0
STYLE
  2
TXT8
 70
    64
 40
0.0
 41
1.0
 50
0.0
 71
     0
 42
3.500000
  3
TXT8
  4

  0
ENDTAB
  0
ENDSEC
  0
SECTION
  2
BLOCKS
  0
ENDSEC
  0
SECTION
  2
ENTITIES
  0
ARC
  8
LC-008-003-----0
 62
     2
  6
DASHED
 10
-243.641586
 20
483.803619
 40
1.733203
 50
0.000000
 51
30.586502
  0
ARC
  8
LC-008-003-----0
 62
     2
  6
DASHED
 10
-243.682602
 20
483.778259
 40
1.781407
 50
30.616989
 51
60.610416
  0
ARC
  8
LC-008-003-----0
 62
     2
  6
DASHED
 10
-243.707413
 20
483.736359
 40
1.830091
 50
60.577521
 51
90.030554
  0
ARC
  8
LC-008-003-----0
 62
     2
  6
DASHED
 10
-243.709366
 20
483.736359
 40
1.830091
 50
89.969444
 51
119.422484
  0
ARC
  8
LC-008-003-----0
 62
     2
  6
DASHED
 10
-243.734177
 20
483.778259
 40
1.781407
 50
119.389589
 51
149.383013
  0
ARC
  8
LC-008-003-----0
 62
     2
  6
DASHED
 10
-243.775192
 20
483.803619
 40
1.733203
 50
149.413503
 51
179.967043
  0
ARC
  8
LC-008-003-----0
 62
     2
  6
DASHED
 10
-243.775192
 20
483.805603
 40
1.733203
 50
180.032957
 51
210.586497
  0
ARC
  8
LC-008-003-----0
 62
     2
  6
DASHED
 10
-243.734177
 20
483.830963
 40
1.781407
 50
210.616987
 51
240.610411
  0
ARC
  8
LC-008-003-----0
 62
     2
  6
DASHED
 10
-243.709366
 20
483.872864
 40
1.830091
 50
240.577516
 51
270.030556
  0
ARC
  8
LC-008-003-----0
 62
     2
  6
DASHED
 10
-243.707413
 20
483.872864
 40
1.830091
 50
269.969446
 51
299.422479
  0
ARC
  8
LC-008-003-----0
 62
     2
  6
DASHED
 10
-243.682602
 20
483.830963
 40
1.781407
 50
299.389584
 51
329.383011
  0
ARC
  8
LC-008-003-----0
 62
     2
  6
DASHED
 10
-243.641586
 20
483.805603
 40
1.733203
 50
329.413498
 51
0.000000
  0
ARC
  8
LC-008-003-----0
 62
     2
  6
DASHED
 10
-243.474503
 20
483.800354
 40
0.516140
 50
0.471431
 51
36.361878
  0
ARC
  8
LC-008-003-----0
 62
     2
  6
DASHED
 10
-243.618118
 20
483.692413
 40
0.695778
 50
36.508338
 51
65.844123
  0
ARC
  8
LC-008-003-----0
 62
     2
  6
DASHED
 10
-243.704971
 20
483.513977
 40
0.894172
 50
65.445390
 51
90.218978
  0
ARC
  8
LC-008-003-----0
 62
     2
  6
DASHED
 10
-243.711807
 20
483.513977
 40
0.894172
 50
89.781027
 51
114.554608
  0
ARC
  8
LC-008-003-----0
 62
     2
  6
DASHED
 10
-243.798660
 20
483.692413
 40
0.695778
 50
114.155882
 51
143.491660
  0
ARC
  8
LC-008-003-----0
 62
     2
  6
DASHED
 10
-243.942261
 20
483.800354
 40
0.516140
 50
143.638127
 51
179.528572
  0
ARC
  8
LC-008-003-----0
 62
     2
  6
DASHED
 10
-243.942261
 20
483.808838
 40
0.516140
 50
180.471428
 51
216.361873
  0
ARC
  8
LC-008-003-----0
 62
     2
  6
DASHED
 10
-243.798660
 20
483.916779
 40
0.695778
 50
216.508340
 51
245.844118
  0
ARC
  8
LC-008-003-----0
 62
     2
  6
DASHED
 10
-243.711807
 20
484.095245
 40
0.894172
 50
245.445392
 51
270.218973
  0
ARC
  8
LC-008-003-----0
 62
     2
  6
DASHED
 10
-243.704971
 20
484.095245
 40
0.894172
 50
269.781022
 51
294.554610
  0
ARC
  8
LC-008-003-----0
 62
     2
  6
DASHED
 10
-243.618118
 20
483.916779
 40
0.695778
 50
294.155877
 51
323.491662
  0
ARC
  8
LC-008-003-----0
 62
     2
  6
DASHED
 10
-243.474503
 20
483.808838
 40
0.516140
 50
323.638122
 51
359.528569
  0
LINE
  8
LC-003-002-----0
 62
     1
  6
CONTINUOUS
 10
-145.446671
 20
477.416534
 11
-142.457413
 21
473.725098
  0
LINE
  8
LC-003-002-----0
 62
     1
  6
CONTINUOUS
 10
-153.313187
 20
477.416534
 11
-156.302460
 21
473.725098
  0
ARC
  8
LC-003-002-----0
 62
     1
  6
CONTINUOUS
 10
-149.379929
 20
482.273712
 40
11.000000
 50
308.999999
 51
231.000007
  0
ARC
  8
LC-003-002-----0
 62
     1
  6
CONTINUOUS
 10
-149.379929
 20
482.273712
 40
6.250000
 50
308.999999
 51
231.000007
  0
LINE
  8
LC-004-006-----0
 62
     2
  6
DASHDOT
 10
-164.559326
 20
482.273712
 11
-134.088196
 21
482.273712
  0
LINE
  8
LC-004-006-----0
 62
     2
  6
DASHDOT
 10
-149.379929
 20
499.051849
 11
-149.379929
 21
468.883942
  0
CIRCLE
  8
LC-003-002-----0
 62
     1
  6
CONTINUOUS
 10
-149.379929
 20
482.273712
 40
6.000000
  0
ARC
  8
LC-003-002-----0
 62
     1
  6
CONTINUOUS
 10
-259.208374
 20
492.773712
 40
0.500000
 50
90.000003
 51
180.000009
  0
ARC
  8
LC-003-002-----0
 62
     1
  6
CONTINUOUS
 10
-228.208389
 20
492.773712
 40
0.500000
 50
0.000000
 51
90.000003
  0
ARC
  8
LC-003-002-----0
 62
     1
  6
CONTINUOUS
 10
-228.208389
 20
474.186829
 40
0.500000
 50
269.999997
 51
0.000000
  0
ARC
  8
LC-003-002-----0
 62
     1
  6
CONTINUOUS
 10
-259.208374
 20
474.186829
 40
0.500000
 50
180.000009
 51
269.999997
  0
LINE
  8
LC-004-006-----0
 62
     2
  6
DASHDOT
 10
-282.277893
 20
482.273712
 11
-205.918976
 21
482.273712
  0
LINE
  8
LC-003-002-----0
 62
     1
  6
CONTINUOUS
 10
-259.208374
 20
493.273712
 11
-255.008408
 21
493.273712
  0
LINE
  8
LC-003-002-----0
 62
     1
  6
CONTINUOUS
 10
-259.208374
 20
473.686829
 11
-255.008408
 21
473.686829
  0
LINE
  8
LC-003-002-----0
 62
     1
  6
CONTINUOUS
 10
-259.708374
 20
474.186829
 11
-259.708374
 21
492.773712
  0
LINE
  8
LC-003-002-----0
 62
     1
  6
CONTINUOUS
 10
-227.708389
 20
474.186829
 11
-227.708389
 21
492.773712
  0
LINE
  8
LC-003-002-----0
 62
     1
  6
CONTINUOUS
 10
-279.223175
 20
488.273712
 11
-259.708374
 21
488.273712
  0
LINE
  8
LC-003-002-----0
 62
     1
  6
CONTINUOUS
 10
-279.452881
 20
476.273712
 11
-259.708374
 21
476.273712
  0
LINE
  8
LC-006-012-----0
 62
     2
  6
CONTINUOUS
 10
-279.452881
 20
476.273712
 11
-278.454010
 21
479.169495
  0
LINE
  8
LC-006-012-----0
 62
     2
  6
CONTINUOUS
 10
-278.454010
 20
479.169495
 11
-279.966370
 21
485.783142
  0
LINE
  8
LC-006-012-----0
 62
     2
  6
CONTINUOUS
 10
-279.966370
 20
485.783142
 11
-279.223175
 21
488.273712
  0
LINE
  8
LC-006-012-----0
 62
     2
  6
CONTINUOUS
 10
-210.570313
 20
476.273712
 11
-209.902679
 21
478.933472
  0
LINE
  8
LC-006-012-----0
 62
     2
  6
CONTINUOUS
 10
-209.902679
 20
478.933472
 11
-211.734695
 21
485.311096
  0
LINE
  8
LC-006-012-----0
 62
     2
  6
CONTINUOUS
 10
-211.734695
 20
485.311096
 11
-211.698914
 21
488.273712
  0
LINE
  8
LC-008-003-----0
 62
     2
  6
DASHED
 10
-259.708374
 20
488.273712
 11
-227.708405
 21
488.273712
  0
LINE
  8
LC-003-002-----0
 62
     1
  6
CONTINUOUS
 10
-227.708389
 20
488.273712
 11
-211.698914
 21
488.273712
  0
LINE
  8
LC-008-003-----0
 62
     2
  6
DASHED
 10
-259.708374
 20
476.273712
 11
-227.708405
 21
476.273712
  0
LINE
  8
LC-003-002-----0
 62
     1
  6
CONTINUOUS
 10
-227.708389
 20
476.273712
 11
-210.570313
 21
476.273712
  0
LINE
  8
LC-003-002-----0
 62
     1
  6
CONTINUOUS
 10
-253.708389
 20
473.686829
 11
-233.708389
 21
473.686829
  0
LINE
  8
LC-003-002-----0
 62
     1
  6
CONTINUOUS
 10
-233.708389
 20
473.686829
 11
-233.708389
 21
493.273712
  0
LINE
  8
LC-003-002-----0
 62
     1
  6
CONTINUOUS
 10
-253.708389
 20
473.686829
 11
-253.708389
 21
493.273712
  0
LINE
  8
LC-003-002-----0
 62
     1
  6
CONTINUOUS
 10
-232.408386
 20
473.686829
 11
-232.408386
 21
493.273712
  0
LINE
  8
LC-003-002-----0
 62
     1
  6
CONTINUOUS
 10
-255.008392
 20
473.686829
 11
-255.008392
 21
493.273712
  0
LINE
  8
LC-003-002-----0
 62
     1
  6
CONTINUOUS
 10
-232.408386
 20
473.686829
 11
-228.208389
 21
473.686829
  0
LINE
  8
LC-003-002-----0
 62
     1
  6
CONTINUOUS
 10
-232.408386
 20
493.273712
 11
-228.208389
 21
493.273712
  0
LINE
  8
LC-003-002-----0
 62
     1
  6
CONTINUOUS
 10
-253.708389
 20
493.273712
 11
-233.708389
 21
493.273712
  0
LINE
  8
LC-003-002-----0
 62
     1
  6
CONTINUOUS
 10
-255.008392
 20
474.186829
 11
-253.708389
 21
474.186829
  0
LINE
  8
LC-003-002-----0
 62
     1
  6
CONTINUOUS
 10
-233.708389
 20
474.186829
 11
-232.408386
 21
474.186829
  0
LINE
  8
LC-003-002-----0
 62
     1
  6
CONTINUOUS
 10
-233.708389
 20
492.773712
 11
-232.408386
 21
492.773712
  0
LINE
  8
LC-003-002-----0
 62
     1
  6
CONTINUOUS
 10
-255.008392
 20
492.773712
 11
-253.708389
 21
492.773712
  0
ARC
  8
LC-003-002-----0
 62
     1
  6
CONTINUOUS
 10
-149.379929
 20
482.273712
 40
9.000000
 50
308.999999
 51
231.000007
  0
LINE
  8
LC-004-006-----0
 62
     2
  6
DASHDOT
 10
-154.831375
 20
482.943054
 11
-161.125290
 21
483.715851
  0
LINE
  8
LC-008-003-----0
 62
     2
  6
DASHED
 10
-155.447113
 20
483.774292
 11
-159.213989
 21
484.236816
  0
LINE
  8
LC-008-003-----0
 62
     2
  6
DASHED
 10
-155.629913
 20
482.285461
 11
-159.396790
 21
482.747986
  0
LINE
  8
LC-008-003-----0
 62
     2
  6
DASHED
 10
-159.086029
 20
485.278992
 11
-159.931412
 21
485.382782
  0
LINE
  8
LC-008-003-----0
 62
     2
  6
DASHED
 10
-159.524750
 20
481.705811
 11
-160.370132
 21
481.809601
  0
LINE
  8
LC-004-006-----0
 62
     2
  6
DASHDOT
 10
-240.974930
 20
483.804596
 11
-246.354431
 21
483.804596
  0
LINE
  8
LC-008-003-----0
 62
     2
  6
DASHED
 10
-159.086029
 20
485.278992
 11
-159.524750
 21
481.705811
  0
LINE
  8
LC-004-006-----0
 62
     2
  6
DASHDOT
 10
-243.708389
 20
486.460480
 11
-243.708389
 21
481.254639
  0
ENDSEC
  0
EOF
