  0
SECTION
  2
HEADER
  9
$LIMMIN
 10
114.458626
 20
316.484955
  9
$LIMMAX
 10
243.174866
 20
342.605682
  9
$EXTMIN
 10
114.458626
 20
316.484955
  9
$EXTMAX
 10
243.174866
 20
342.605682
  0
ENDSEC
  0
SECTION
  2
TABLES
  0
TABLE
  2
LTYPE
 70
     3
  0
LTYPE
  2
CONTINUOUS
 70
    64
  3
Ausgezogene Linie
 72
    65
 73
     0
 40
0.0
  0
LTYPE
  2
DASHED
 70
    64
  3
__ __ __ __ __ __ __ __ __ __ __ __ __ __ __
 72
    65
 73
     2
 40
0.75
 49
0.5
 49
-0.25
  0
LTYPE
  2
DASHDOT
 70
    64
  3
__ . __ . __ . __ . __ . __ . __ . __ . __ . __
 72
    65
 73
     4
 40
1.0
 49
0.5
 49
-0.25
 49
0.0
 49
-0.25
  0
ENDTAB
  0
TABLE
  2
LAYER
 70
     4
  0
LAYER
  2
LC-003-002-----0
 70
    64
 62
     7
  6
CONTINUOUS
  0
LAYER
  2
LC-004-006-----0
 70
    64
 62
     7
  6
CONTINUOUS
  0
LAYER
  2
LC-008-003-----0
 70
    64
 62
     7
  6
CONTINUOUS
  0
LAYER
  2
LC-006-012-----0
 70
    64
 62
     7
  6
CONTINUOUS
  0
ENDTAB
  0
TABLE
  2
STYLE
 70
     1
  0
STYLE
  2
TXT8
 70
    64
 40
0.0
 41
1.0
 50
0.0
 71
     0
 42
3.500000
  3
TXT8
  4

  0
ENDTAB
  0
ENDSEC
  0
SECTION
  2
BLOCKS
  0
ENDSEC
  0
SECTION
  2
ENTITIES
  0
ARC
  8
LC-003-002-----0
 62
     1
  6
CONTINUOUS
 10
132.134918
 20
337.703705
 40
0.500000
 50
90.000003
 51
180.000009
  0
ARC
  8
LC-003-002-----0
 62
     1
  6
CONTINUOUS
 10
132.134918
 20
322.703705
 40
0.500000
 50
180.000009
 51
269.999997
  0
ARC
  8
LC-003-002-----0
 62
     1
  6
CONTINUOUS
 10
156.134918
 20
322.703705
 40
0.500000
 50
269.999997
 51
0.000000
  0
ARC
  8
LC-003-002-----0
 62
     1
  6
CONTINUOUS
 10
156.134918
 20
337.703705
 40
0.500000
 50
0.000000
 51
90.000003
  0
LINE
  8
LC-004-006-----0
 62
     2
  6
DASHDOT
 10
114.458626
 20
330.203705
 11
173.542130
 21
330.203705
  0
LINE
  8
LC-003-002-----0
 62
     1
  6
CONTINUOUS
 10
132.134918
 20
338.203705
 11
136.034912
 21
338.203705
  0
LINE
  8
LC-003-002-----0
 62
     1
  6
CONTINUOUS
 10
132.134918
 20
322.203705
 11
136.034912
 21
322.203705
  0
LINE
  8
LC-003-002-----0
 62
     1
  6
CONTINUOUS
 10
131.634918
 20
322.703705
 11
131.634918
 21
337.703705
  0
LINE
  8
LC-003-002-----0
 62
     1
  6
CONTINUOUS
 10
156.634918
 20
322.703705
 11
156.634918
 21
337.703705
  0
LINE
  8
LC-003-002-----0
 62
     1
  6
CONTINUOUS
 10
117.298080
 20
334.203705
 11
131.634918
 21
334.203705
  0
LINE
  8
LC-003-002-----0
 62
     1
  6
CONTINUOUS
 10
115.894432
 20
326.203705
 11
131.634918
 21
326.203705
  0
LINE
  8
LC-008-003-----0
 62
     2
  6
DASHED
 10
131.634918
 20
334.203705
 11
156.634918
 21
334.203705
  0
LINE
  8
LC-003-002-----0
 62
     1
  6
CONTINUOUS
 10
156.634918
 20
334.203705
 11
170.746857
 21
334.203705
  0
LINE
  8
LC-008-003-----0
 62
     2
  6
DASHED
 10
131.634918
 20
326.203705
 11
156.634918
 21
326.203705
  0
LINE
  8
LC-003-002-----0
 62
     1
  6
CONTINUOUS
 10
156.634918
 20
326.203705
 11
171.258011
 21
326.203705
  0
LINE
  8
LC-003-002-----0
 62
     1
  6
CONTINUOUS
 10
137.134918
 20
338.203705
 11
151.134918
 21
338.203705
  0
LINE
  8
LC-003-002-----0
 62
     1
  6
CONTINUOUS
 10
151.134918
 20
322.203705
 11
151.134918
 21
338.203705
  0
LINE
  8
LC-003-002-----0
 62
     1
  6
CONTINUOUS
 10
137.134918
 20
322.203705
 11
137.134918
 21
338.203705
  0
LINE
  8
LC-003-002-----0
 62
     1
  6
CONTINUOUS
 10
152.234924
 20
322.203705
 11
152.234924
 21
338.203705
  0
LINE
  8
LC-003-002-----0
 62
     1
  6
CONTINUOUS
 10
136.034912
 20
322.203705
 11
136.034912
 21
338.203705
  0
LINE
  8
LC-003-002-----0
 62
     1
  6
CONTINUOUS
 10
137.134918
 20
322.203705
 11
151.134918
 21
322.203705
  0
LINE
  8
LC-003-002-----0
 62
     1
  6
CONTINUOUS
 10
152.234924
 20
322.203705
 11
156.134918
 21
322.203705
  0
LINE
  8
LC-003-002-----0
 62
     1
  6
CONTINUOUS
 10
152.234924
 20
338.203705
 11
156.134918
 21
338.203705
  0
LINE
  8
LC-003-002-----0
 62
     1
  6
CONTINUOUS
 10
136.034912
 20
337.803711
 11
137.134918
 21
337.803711
  0
LINE
  8
LC-003-002-----0
 62
     1
  6
CONTINUOUS
 10
151.134918
 20
337.803711
 11
152.234924
 21
337.803711
  0
LINE
  8
LC-006-012-----0
 62
     2
  6
CONTINUOUS
 10
115.894432
 20
326.203705
 11
117.208138
 21
328.150543
  0
LINE
  8
LC-006-012-----0
 62
     2
  6
CONTINUOUS
 10
117.208138
 20
328.150543
 11
116.469078
 21
332.718384
  0
LINE
  8
LC-003-002-----0
 62
     1
  6
CONTINUOUS
 10
151.134918
 20
322.603699
 11
152.234924
 21
322.603699
  0
LINE
  8
LC-003-002-----0
 62
     1
  6
CONTINUOUS
 10
136.034912
 20
322.603699
 11
137.134918
 21
322.603699
  0
LINE
  8
LC-006-012-----0
 62
     2
  6
CONTINUOUS
 10
116.469078
 20
332.718384
 11
117.298080
 21
334.203705
  0
LINE
  8
LC-006-012-----0
 62
     2
  6
CONTINUOUS
 10
171.258011
 20
326.203705
 11
170.730591
 21
328.100952
  0
LINE
  8
LC-006-012-----0
 62
     2
  6
CONTINUOUS
 10
170.730591
 20
328.100952
 11
171.604034
 21
332.170685
  0
LINE
  8
LC-006-012-----0
 62
     2
  6
CONTINUOUS
 10
171.604034
 20
332.170685
 11
170.746857
 21
334.203705
  0
LINE
  8
LC-004-006-----0
 62
     2
  6
DASHDOT
 10
215.268219
 20
330.203705
 11
243.174866
 21
330.203705
  0
LINE
  8
LC-004-006-----0
 62
     2
  6
DASHDOT
 10
228.985046
 20
342.605682
 11
228.985046
 21
316.484955
  0
CIRCLE
  8
LC-003-002-----0
 62
     1
  6
CONTINUOUS
 10
228.985046
 20
330.203705
 40
7.000000
  0
CIRCLE
  8
LC-003-002-----0
 62
     1
  6
CONTINUOUS
 10
228.985046
 20
330.203705
 40
8.000000
  0
CIRCLE
  8
LC-003-002-----0
 62
     1
  6
CONTINUOUS
 10
228.985046
 20
330.203705
 40
4.000000
  0
ENDSEC
  0
EOF
