  0
SECTION
  2
HEADER
  9
$ACADVER
  1
AC1014
  9
$ACADMAINTVER
 70
           0
  9
$DWGCODEPAGE
  3
DOS850
  9
$INSBASE
 10
0.0
 20
0.0
 30
0.0
  9
$EXTMIN
 10
266.621389
 20
106.731079333333
 30
0.0
  9
$EXTMAX
 10
851.467427333333
 20
250.316487666667
 30
0.0
  9
$LIMMIN
 10
266.621389
 20
106.731079333333
  9
$LIMMAX
 10
851.467427333333
 20
250.316487666667
  9
$ORTHOMODE
 70
           0
  9
$REGENMODE
 70
           1
  9
$FILLMODE
 70
           1
  9
$QTEXTMODE
 70
           0
  9
$MIRRTEXT
 70
           1
  9
$DRAGMODE
 70
           2
  9
$LTSCALE
 40
5.0
  9
$OSMODE
 70
           0
  9
$ATTMODE
 70
           1
  9
$TEXTSIZE
 40
0.2
  9
$TRACEWID
 40
0.05
  9
$TEXTSTYLE
  7
TXT
  9
$CLAYER
  8
0
  9
$CELTYPE
  6
CONTINUOUS
  9
$CECOLOR
 62
         256
  9
$CELTSCALE
 40
1.0
  9
$DELOBJ
 70
           1
  9
$DISPSILH
 70
           0
  9
$DIMSCALE
 40
1.0
  9
$DIMASZ
 40
3.5
  9
$DIMEXO
 40
0.0625
  9
$DIMDLI
 40
0.38
  9
$DIMRND
 40
0.0
  9
$DIMDLE
 40
0.0
  9
$DIMEXE
 40
0.18
  9
$DIMTP
 40
0.0
  9
$DIMTM
 40
0.0
  9
$DIMTXT
 40
3.5
  9
$DIMCEN
 40
0.09
  9
$DIMTSZ
 40
0.0
  9
$DIMTOL
 70
           0
  9
$DIMLIM
 70
           0
  9
$DIMTIH
 70
           1
  9
$DIMTOH
 70
           1
  9
$DIMSE1
 70
           0
  9
$DIMSE2
 70
           0
  9
$DIMTAD
 70
           0
  9
$DIMZIN
 70
           0
  9
$DIMBLK
  1

  9
$DIMASO
 70
           1
  9
$DIMSHO
 70
           1
  9
$DIMPOST
  1

  9
$DIMAPOST
  1

  9
$DIMALT
 70
           0
  9
$DIMALTD
 70
           2
  9
$DIMALTF
 40
25.4
  9
$DIMLFAC
 40
1.0
  9
$DIMTOFL
 70
           0
  9
$DIMTVP
 40
0.0
  9
$DIMTIX
 70
           0
  9
$DIMSOXD
 70
           0
  9
$DIMSAH
 70
           0
  9
$DIMBLK1
  1

  9
$DIMBLK2
  1

  9
$DIMSTYLE
  2
STANDARD
  9
$DIMCLRD
 70
           0
  9
$DIMCLRE
 70
           0
  9
$DIMCLRT
 70
           0
  9
$DIMTFAC
 40
1.0
  9
$DIMGAP
 40
0.09
  9
$DIMJUST
 70
           0
  9
$DIMSD1
 70
           0
  9
$DIMSD2
 70
           0
  9
$DIMTOLJ
 70
           1
  9
$DIMTZIN
 70
           0
  9
$DIMALTZ
 70
           0
  9
$DIMALTTZ
 70
           0
  9
$DIMFIT
 70
           3
  9
$DIMUPT
 70
           0
  9
$DIMUNIT
 70
           2
  9
$DIMDEC
 70
           4
  9
$DIMTDEC
 70
           4
  9
$DIMALTU
 70
           2
  9
$DIMALTTD
 70
           2
  9
$DIMTXSTY
  7
TXT
  9
$DIMAUNIT
 70
           0
  9
$LUNITS
 70
           2
  9
$LUPREC
 70
           2
  9
$SKETCHINC
 40
0.1
  9
$FILLETRAD
 40
0.0
  9
$AUNITS
 70
           0
  9
$AUPREC
 70
           2
  9
$MENU
  1
acad
  9
$ELEVATION
 40
0.0
  9
$PELEVATION
 40
0.0
  9
$THICKNESS
 40
0.0
  9
$LIMCHECK
 70
           0
  9
$BLIPMODE
 70
           1
  9
$CHAMFERA
 40
0.0
  9
$CHAMFERB
 40
0.0
  9
$CHAMFERC
 40
0.0
  9
$CHAMFERD
 40
0.0
  9
$SKPOLY
 70
           0
  9
$TDCREATE
 40
0.000000000
  9
$TDUPDATE
 40
0.000000000
  9
$TDINDWG
 40
0.0000000000
  9
$TDUSRTIMER
 40
0.0000000000
  9
$USRTIMER
 70
           1
  9
$ANGBASE
 50
0.0
  9
$ANGDIR
 70
           0
  9
$PDMODE
 70
           2
  9
$PDSIZE
 40
0.5
  9
$PLINEWID
 40
0.0
  9
$COORDS
 70
           0
  9
$SPLFRAME
 70
           0
  9
$SPLINETYPE
 70
           6
  9
$SPLINESEGS
 70
           8
  9
$ATTDIA
 70
           0
  9
$ATTREQ
 70
           1
  9
$HANDLING
 70
           1
  9
$HANDSEED
  5
111
  9
$SURFTAB1
 70
           6
  9
$SURFTAB2
 70
           6
  9
$SURFTYPE
 70
           6
  9
$SURFU
 70
           6
  9
$SURFV
 70
           6
  9
$UCSNAME
  2

  9
$UCSORG
 10
0.0
 20
0.0
 30
0.0
  9
$UCSXDIR
 10
1.0
 20
0.0
 30
0.0
  9
$UCSYDIR
 10
0.0
 20
1.0
 30
0.0
  9
$PUCSNAME
  2

  9
$PUCSORG
 10
0.0
 20
0.0
 30
0.0
  9
$PUCSXDIR
 10
1.0
 20
0.0
 30
0.0
  9
$PUCSYDIR
 10
0.0
 20
1.0
 30
0.0
  9
$USERI1
 70
           0
  9
$USERI2
 70
           0
  9
$USERI3
 70
           0
  9
$USERI4
 70
           0
  9
$USERI5
 70
           0
  9
$USERR1
 40
0.0
  9
$USERR2
 40
0.0
  9
$USERR3
 40
0.0
  9
$USERR4
 40
0.0
  9
$USERR5
 40
0.0
  9
$WORLDVIEW
 70
           1
  9
$SHADEDGE
 70
           3
  9
$SHADEDIF
 70
          70
  9
$TILEMODE
 70
           1
  9
$MAXACTVP
 70
          16
  9
$PINSBASE
 10
0.0
 20
0.0
 30
0.0
  9
$PLIMCHECK
 70
           0
  9
$PEXTMIN
 10
1.000000000000E+20
 20
1.000000000000E+20
 30
1.000000000000E+20
  9
$PEXTMAX
 10
-1.000000000000E+20
 20
-1.000000000000E+20
 30
-1.000000000000E+20
  9
$PLIMMIN
 10
0.0
 20
0.0
  9
$PLIMMAX
 10
12.0
 20
9.0
  9
$UNITMODE
 70
           0
  9
$VISRETAIN
 70
           0
  9
$PLINEGEN
 70
           1
  9
$PSLTSCALE
 70
           0
  9
$TREEDEPTH
 70
        3020
  9
$PICKSTYLE
 70
           1
  9
$CMLSTYLE
  2
STANDARD
  9
$CMLJUST
 70
           0
  9
$CMLSCALE
 40
1.0
  9
$PROXYGRAPHICS
 70
           0
  9
$MEASUREMENT
 70
           0
  0
ENDSEC
  0
SECTION
  2
CLASSES
  0
CLASS
  1
LWPOLYLINE
  2
AcDbPolyline
  3
"AutoCAD"
 90
        0
280
           0
281
           1
  0
CLASS
  1
IMAGE
  2
AcDbRasterImage
  3
ISM
 90
      127
280
           0
281
           1
  0
CLASS
  1
OLE2FRAME
  2
AcDbOle2Frame
  3
""
 90
        0
280
           0
281
           1
  0
CLASS
  1
HATCH
  2
AcDbHatch
  3
"ACAD_SEDONA"
 90
        0
280
           0
281
           1
  0
CLASS
  1
DICTIONARYVAR
  2
AcDbDictionaryVar
  3
"AutoCAD"
 90
        0
280
           0
281
           0
  0
CLASS
  1
RASTERVARIABLES
  2
AcDbRasterVariables
  3
ISM
 90
        0
280
           0
281
           0
  0
CLASS
  1
IMAGEDEF
  2
AcDbRasterImageDef
  3
ISM
 90
        0
280
           0
281
           0
  0
CLASS
  1
IMAGEDEF_REACTOR
  2
AcDbRasterImageDefReactor
  3
ISM
 90
        1
280
           0
281
           0
  0
CLASS
  1
IDBUFFER
  2
AcDbIdBuffer
  3
"Acad"
 90
        0
280
           0
281
           0
  0
CLASS
  1
SPATIAL_FILTER
  2
AcDbSpatialFilter
  3
"Acad"
 90
        0
280
           0
281
           0
  0
CLASS
  1
XRECORD
  2
AcDbXrecord
  3
"<Built In>"
 90
        0
280
           0
281
           0
  0
CLASS
  1
SORTENTSTABLE
  2
AcDbSortentsTable
  3
"AutoCAD"
 90
        0
280
           0
281
           0
  0
CLASS
  1
LAYER_INDEX
  2
AcDbLayerIndex
  3
"Acad"
 90
        0
280
           0
281
           0
  0
CLASS
  1
SPATIAL_INDEX
  2
AcDbSpatialIndex
  3
"Acad"
 90
        0
280
           0
281
           0
  0
CLASS
  1
OBJECT_PTR
  2
CAseDLPNTableRecord
  3
"ASE-LPNTableRecord"
 90
        1
280
           0
281
           0
  0
CLASS
  1
LAYOUT
  2
AcDbLayout
  3
"AutoCAD 2000"
 90
        1
280
           0
281
           0
  0
CLASS
  1
PLOTSETTINGS
  2
AcDbPlotSettings
  3
"AutoCAD 2000"
 90
        1
280
           0
281
           0
  0
CLASS
  1
ACDBDICTIONARYWDFLT
  2
AcDbDictionaryWithDefault
  3
"AutoCAD 2000"
 90
        1
280
           0
281
           0
  0
CLASS
  1
ACDBPLACEHOLDER
  2
AcDbPlaceHolder
  3
"AutoCAD 2000"
 90
        1
280
           0
281
           0
  0
CLASS
  1
VBA_PROJECT
  2
AcDbVbaProject
  3
"acadvba"
 90
        1
280
           0
281
           0
  0
CLASS
  1
WIPEOUT
  2
AcDbWipeout
  3
WipeOut|AutoCAD Express Tool|expresstools@autodesk.com
 90
      127
280
           0
281
           1
  0
CLASS
  1
WIPEOUTVARIABLES
  2
AcDbWipeoutVariables
  3
WipeOut|AutoCAD Express Tool|expresstools@autodesk.com
 90
        0
280
           0
281
           0
  0
CLASS
  1
RTEXT
  2
RText
  3
RText|AutoCAD Express Tool|expresstools@autodesk.com
 90
        0
280
           0
281
           1
  0
CLASS
  1
ARCALIGNEDTEXT
  2
AcDbArcAlignedText
  3
ATEXT|AutoCAD Express Tool|expresstools@autodesk.com
 90
        0
280
           0
281
           1
  0
ENDSEC
  0
SECTION
  2
TABLES
  0
TABLE
  2
VPORT
  5
7
100
AcDbSymbolTable
 70
           1
  0
VPORT
  5
15
100
AcDbSymbolTableRecord
100
AcDbViewportTableRecord
  2
*ACTIVE
 70
           0
 10
0.0
 20
0.0
 11
1.0
 21
1.0
 12
6.591288
 22
4.579184
 13
0.0
 23
0.0
 14
1.0
 24
1.0
 15
0.0
 25
0.0
 16
0.0
 26
0.0
 36
1.0
 17
0.0
 27
0.0
 37
0.0
 40
9.158369
 41
0.688564
 42
50.0
 43
0.0
 44
0.0
 50
0.0
 51
0.0
 71
           0
 72
         100
 73
           1
 74
           1
 75
           0
 76
           0
 77
           0
 78
           0
  0
ENDTAB
  0
TABLE
  2
LTYPE
  5
4
100
AcDbSymbolTable
 70
           6
  0
LTYPE
  5
11
100
AcDbSymbolTableRecord
100
AcDbLinetypeTableRecord
  2
BYBLOCK
 70
          64
  3

 72
          65
 73
           0
 40
0.0
  0
LTYPE
  5
12
100
AcDbSymbolTableRecord
100
AcDbLinetypeTableRecord
  2
BYLAYER
 70
          64
  3

 72
          65
 73
           0
 40
0.0
  0
LTYPE
  5
13
100
AcDbSymbolTableRecord
100
AcDbLinetypeTableRecord
  2
CONTINUOUS
 70
          64
  3
Solid line
 72
          65
 73
           0
 40
0.0
  0
LTYPE
  5
1D
100
AcDbSymbolTableRecord
100
AcDbLinetypeTableRecord
  2
AUSGEZOGEN
 70
           0
  3

 72
          65
 73
           2
 40
0.5
 49
0.25
 74
           0
 49
-0.25
 74
           0
  0
LTYPE
  5
1E
100
AcDbSymbolTableRecord
100
AcDbLinetypeTableRecord
  2
STRICHLINIE
 70
           0
  3

 72
          65
 73
           2
 40
0.5
 49
0.25
 74
           0
 49
-0.25
 74
           0
  0
LTYPE
  5
1F
100
AcDbSymbolTableRecord
100
AcDbLinetypeTableRecord
  2
STRICHPUNKT
 70
           0
  3

 72
          65
 73
           4
 40
1.0
 49
0.5
 74
           0
 49
-0.25
 74
           0
 49
0.0
 74
           0
 49
-0.25
 74
           0
  0
ENDTAB
  0
TABLE
  2
LAYER
  5
2
100
AcDbSymbolTable
 70
           5
  0
LAYER
  5
14
100
AcDbSymbolTableRecord
100
AcDbLayerTableRecord
  2
0
 70
           0
 62
           7
  6
CONTINUOUS
  0
LAYER
  5
20
100
AcDbSymbolTableRecord
100
AcDbLayerTableRecord
  2
LC-003-002-----0
 70
           0
 62
           7
  6
CONTINUOUS
  0
LAYER
  5
21
100
AcDbSymbolTableRecord
100
AcDbLayerTableRecord
  2
LC-005-002-RND-0
 70
           0
 62
           7
  6
CONTINUOUS
  0
LAYER
  5
22
100
AcDbSymbolTableRecord
100
AcDbLayerTableRecord
  2
LC-008-003-----0
 70
           0
 62
           7
  6
CONTINUOUS
  0
LAYER
  5
23
100
AcDbSymbolTableRecord
100
AcDbLayerTableRecord
  2
LC-004-005-----0
 70
           0
 62
           7
  6
CONTINUOUS
  0
ENDTAB
  0
TABLE
  2
STYLE
  5
3
100
AcDbSymbolTable
 70
           1
  0
STYLE
  5
17
100
AcDbSymbolTableRecord
100
AcDbTextStyleTableRecord
  2
TXT
 70
           0
 40
3.5
 41
1.0
 50
0.0
 71
           0
 42
3.5
  3
TXT
  4

  0
ENDTAB
  0
TABLE
  2
VIEW
  5
5
100
AcDbSymbolTable
 70
           0
  0
ENDTAB
  0
TABLE
  2
UCS
  5
6
100
AcDbSymbolTable
 70
           0
  0
ENDTAB
  0
TABLE
  2
APPID
  5
8
100
AcDbSymbolTable
 70
           2
  0
APPID
  5
16
100
AcDbSymbolTableRecord
100
AcDbRegAppTableRecord
  2
ACAD
 70
           0
  0
APPID
  5
24
100
AcDbSymbolTableRecord
100
AcDbRegAppTableRecord
  2
MegaCADPntStyle
 70
           0
  0
ENDTAB
  0
TABLE
  2
DIMSTYLE
  5
9
100
AcDbSymbolTable
 70
           1
  0
DIMSTYLE
105
18
100
AcDbSymbolTableRecord
100
AcDbDimStyleTableRecord
  2
STANDARD
 70
           0
  3

  4

  5

  6

  7

 40
1.0
 41
0.18
 42
0.0625
 43
0.38
 44
0.18
 45
0.0
 46
0.0
 47
0.0
 48
0.0
 71
           0
 72
           0
 73
           1
 74
           1
 75
           0
 76
           0
 77
           0
 78
           0
140
0.18
141
0.09
142
0.0
143
25.4
144
1.0
145
0.0
146
1.0
147
0.09
170
           0
171
           2
172
           0
173
           0
174
           0
175
           0
176
           0
177
           0
178
           0
270
           2
271
           4
272
           4
273
           2
274
           2
275
           0
280
           0
281
           0
282
           0
283
           1
284
           0
285
           0
286
           0
287
           0
288
           0
340
17
  0
ENDTAB
  0
TABLE
  2
BLOCK_RECORD
  5
1
100
AcDbSymbolTable
 70
           4
  0
BLOCK_RECORD
  5
A
100
AcDbSymbolTableRecord
100
AcDbBlockTableRecord
  2
*MODEL_SPACE
  0
BLOCK_RECORD
  5
B
100
AcDbSymbolTableRecord
100
AcDbBlockTableRecord
  2
*PAPER_SPACE
  0
BLOCK_RECORD
  5
25
102
{ACAD_XDICTIONARY
360
5C
102
}
100
AcDbSymbolTableRecord
100
AcDbBlockTableRecord
  2
ELIPPSE
  0
BLOCK_RECORD
  5
26
102
{ACAD_XDICTIONARY
360
5C
102
}
100
AcDbSymbolTableRecord
100
AcDbBlockTableRecord
  2
KM08_1
  0
BLOCK_RECORD
  5
27
102
{ACAD_XDICTIONARY
360
5C
102
}
100
AcDbSymbolTableRecord
100
AcDbBlockTableRecord
  2
KM08_2
  0
BLOCK_RECORD
  5
28
102
{ACAD_XDICTIONARY
360
5C
102
}
100
AcDbSymbolTableRecord
100
AcDbBlockTableRecord
  2
*X3
  0
ENDTAB
  0
ENDSEC
  0
SECTION
  2
BLOCKS
  0
BLOCK
  5
D
100
AcDbEntity
  8
0
100
AcDbBlockBegin
  2
*MODEL_SPACE
 70
           0
 10
0.0
 20
0.0
 30
0.0
  3
*MODEL_SPACE
  1

  0
ENDBLK
  5
E
100
AcDbEntity
  8
0
100
AcDbBlockEnd
  0
BLOCK
  5
F
100
AcDbEntity
 67
           1
  8
0
100
AcDbBlockBegin
  2
*PAPER_SPACE
 70
           0
 10
0.0
 20
0.0
 30
0.0
  3
*PAPER_SPACE
  1

  0
ENDBLK
  5
10
100
AcDbEntity
 67
           1
  8
0
100
AcDbBlockEnd
  0
BLOCK
  5
DD
100
AcDbEntity
  8
0
100
AcDbBlockBegin
  2
ELIPPSE
 70
          64
 10
0.0
 20
0.0
 30
0.0
  3
ELIPPSE
  1

  0
CIRCLE
  5
DE
100
AcDbEntity
  8
0
  6
BYBLOCK
 62
           0
100
AcDbCircle
 10
0.0
 20
0.0
 30
0.0
 40
1.0
  0
ENDBLK
  5
DF
100
AcDbEntity
  8
0
  6
BYBLOCK
 62
           0
100
AcDbBlockEnd
  0
BLOCK
  5
E0
100
AcDbEntity
  8
0
100
AcDbBlockBegin
  2
KM08_1
 70
          64
 10
0.0
 20
0.0
 30
0.0
  3
KM08_1
  1

  0
LINE
  5
E1
100
AcDbEntity
  8
0
  6
BYBLOCK
 62
           0
100
AcDbLine
 10
-8.1
 20
-8.8
 30
0.0
 11
5.5
 21
-8.8
 31
0.0
  0
LINE
  5
E2
100
AcDbEntity
  8
0
  6
BYBLOCK
 62
           0
100
AcDbLine
 10
5.5
 20
-8.8
 30
0.0
 11
5.5
 21
0.0
 31
0.0
  0
LINE
  5
E3
100
AcDbEntity
  8
0
  6
BYBLOCK
 62
           0
100
AcDbLine
 10
-8.1
 20
-8.8
 30
0.0
 11
-8.1
 21
0.0
 31
0.0
  0
LINE
  5
E4
100
AcDbEntity
  8
0
  6
BYBLOCK
 62
           0
100
AcDbLine
 10
3.1
 20
-14.4
 30
0.0
 11
3.1
 21
-8.8
 31
0.0
  0
LINE
  5
E5
100
AcDbEntity
  8
0
  6
BYBLOCK
 62
           0
100
AcDbLine
 10
-5.7
 20
-14.4
 30
0.0
 11
-5.7
 21
-8.8
 31
0.0
  0
ENDBLK
  5
E6
100
AcDbEntity
  8
0
  6
BYBLOCK
 62
           0
100
AcDbBlockEnd
  0
BLOCK
  5
E7
100
AcDbEntity
  8
0
100
AcDbBlockBegin
  2
KM08_2
 70
          64
 10
0.0
 20
0.0
 30
0.0
  3
KM08_2
  1

  0
LINE
  5
E8
100
AcDbEntity
  8
0
  6
BYBLOCK
 62
           0
100
AcDbLine
 10
-8.1
 20
-8.8
 30
0.0
 11
5.5
 21
-8.8
 31
0.0
  0
LINE
  5
E9
100
AcDbEntity
  8
0
  6
BYBLOCK
 62
           0
100
AcDbLine
 10
5.5
 20
-8.8
 30
0.0
 11
5.5
 21
0.0
 31
0.0
  0
LINE
  5
EA
100
AcDbEntity
  8
0
  6
BYBLOCK
 62
           0
100
AcDbLine
 10
-8.1
 20
-8.8
 30
0.0
 11
-8.1
 21
0.0
 31
0.0
  0
LINE
  5
EB
100
AcDbEntity
  8
0
  6
BYBLOCK
 62
           0
100
AcDbLine
 10
3.1
 20
-14.4
 30
0.0
 11
3.1
 21
-8.8
 31
0.0
  0
LINE
  5
EC
100
AcDbEntity
  8
0
  6
BYBLOCK
 62
           0
100
AcDbLine
 10
-5.7
 20
-14.4
 30
0.0
 11
-5.7
 21
-8.8
 31
0.0
  0
ENDBLK
  5
ED
100
AcDbEntity
  8
0
  6
BYBLOCK
 62
           0
100
AcDbBlockEnd
  0
BLOCK
  5
EE
100
AcDbEntity
  8
0
100
AcDbBlockBegin
  2
*X3
 70
          65
 10
0.0
 20
0.0
 30
0.0
  3
*X3
  1

  0
LINE
  5
EF
100
AcDbEntity
  8
0
  6
BYBLOCK
 62
           0
100
AcDbLine
 10
592.451594507402
 20
210.613932666667
 30
0.0
 11
601.645750666667
 21
219.808088825931
 31
0.0
  0
LINE
  5
F0
100
AcDbEntity
  8
0
  6
BYBLOCK
 62
           0
100
AcDbLine
 10
581.844992789604
 20
210.613932666667
 30
0.0
 11
595.178326122938
 21
223.947266
 31
0.0
  0
LINE
  5
F1
100
AcDbEntity
  8
0
  6
BYBLOCK
 62
           0
100
AcDbLine
 10
571.238391071806
 20
210.613932666667
 30
0.0
 11
581.979084
 21
221.35462559486
 31
0.0
  0
LINE
  5
F2
100
AcDbEntity
  8
0
  6
BYBLOCK
 62
           0
100
AcDbLine
 10
583.645750666667
 20
223.021292261527
 30
0.0
 11
587.571724405139
 21
226.947266
 31
0.0
  0
LINE
  5
F3
100
AcDbEntity
  8
0
  6
BYBLOCK
 62
           0
100
AcDbLine
 10
601.571724405139
 20
240.947266
 30
0.0
 11
601.645750666667
 21
241.021292261527
 31
0.0
  0
LINE
  5
F4
100
AcDbEntity
  8
0
  6
BYBLOCK
 62
           0
100
AcDbLine
 10
560.631789354008
 20
210.613932666667
 30
0.0
 11
571.465122687341
 21
221.447266
 31
0.0
  0
LINE
  5
F5
100
AcDbEntity
  8
0
  6
BYBLOCK
 62
           0
100
AcDbLine
 10
587.965122687341
 20
237.947266
 30
0.0
 11
590.645750666667
 21
240.627893979325
 31
0.0
  0
LINE
  5
F6
100
AcDbEntity
  8
0
  6
BYBLOCK
 62
           0
100
AcDbLine
 10
590.965122687341
 20
240.947266
 30
0.0
 11
593.465122687341
 21
243.447266
 31
0.0
  0
LINE
  5
F7
100
AcDbEntity
  8
0
  6
BYBLOCK
 62
           0
100
AcDbLine
 10
550.02518763621
 20
210.613932666667
 30
0.0
 11
560.858520969543
 21
221.447266
 31
0.0
  0
LINE
  5
F8
100
AcDbEntity
  8
0
  6
BYBLOCK
 62
           0
100
AcDbLine
 10
539.418585918411
 20
210.613932666667
 30
0.0
 11
550.251919251745
 21
221.447266
 31
0.0
  0
LINE
  5
F9
100
AcDbEntity
  8
0
  6
BYBLOCK
 62
           0
100
AcDbLine
 10
528.811984200613
 20
210.613932666667
 30
0.0
 11
539.645317533946
 21
221.447266
 31
0.0
  0
LINE
  5
FA
100
AcDbEntity
  8
0
  6
BYBLOCK
 62
           0
100
AcDbLine
 10
518.776049004593
 20
211.184599188445
 30
0.0
 11
529.038715816148
 21
221.447266
 31
0.0
  0
LINE
  5
FB
100
AcDbEntity
  8
0
  6
BYBLOCK
 62
           0
100
AcDbLine
 10
507.598780765017
 20
210.613932666667
 30
0.0
 11
518.43211409835
 21
221.447266
 31
0.0
  0
LINE
  5
FC
100
AcDbEntity
  8
0
  6
BYBLOCK
 62
           0
100
AcDbLine
 10
496.992179047218
 20
210.613932666667
 30
0.0
 11
507.825512380552
 21
221.447266
 31
0.0
  0
LINE
  5
FD
100
AcDbEntity
  8
0
  6
BYBLOCK
 62
           0
100
AcDbLine
 10
486.38557732942
 20
210.613932666667
 30
0.0
 11
497.218910662754
 21
221.447266
 31
0.0
  0
LINE
  5
FE
100
AcDbEntity
  8
0
  6
BYBLOCK
 62
           0
100
AcDbLine
 10
475.778975611622
 20
210.613932666667
 30
0.0
 11
486.612308944955
 21
221.447266
 31
0.0
  0
LINE
  5
FF
100
AcDbEntity
  8
0
  6
BYBLOCK
 62
           0
100
AcDbLine
 10
465.172373893824
 20
210.613932666667
 30
0.0
 11
476.005707227157
 21
221.447266
 31
0.0
  0
LINE
  5
100
100
AcDbEntity
  8
0
  6
BYBLOCK
 62
           0
100
AcDbLine
 10
454.565772176026
 20
210.613932666667
 30
0.0
 11
454.6457515
 21
210.693911990641
 31
0.0
  0
LINE
  5
101
100
AcDbEntity
  8
0
  6
BYBLOCK
 62
           0
100
AcDbLine
 10
458.6457515
 20
214.693911990641
 30
0.0
 11
465.399105509359
 21
221.447266
 31
0.0
  0
LINE
  5
102
100
AcDbEntity
  8
0
  6
BYBLOCK
 62
           0
100
AcDbLine
 10
443.959170458227
 20
210.613932666667
 30
0.0
 11
454.6457515
 21
221.300513708439
 31
0.0
  0
LINE
  5
103
100
AcDbEntity
  8
0
  6
BYBLOCK
 62
           0
100
AcDbLine
 10
433.352568740429
 20
210.613932666667
 30
0.0
 11
444.185902073763
 21
221.447266
 31
0.0
  0
LINE
  5
104
100
AcDbEntity
  8
0
  6
BYBLOCK
 62
           0
100
AcDbLine
 10
422.745967022631
 20
210.613932666667
 30
0.0
 11
433.579300355964
 21
221.447266
 31
0.0
  0
LINE
  5
105
100
AcDbEntity
  8
0
  6
BYBLOCK
 62
           0
100
AcDbLine
 10
412.139365304833
 20
210.613932666667
 30
0.0
 11
422.972698638166
 21
221.447266
 31
0.0
  0
LINE
  5
106
100
AcDbEntity
  8
0
  6
BYBLOCK
 62
           0
100
AcDbLine
 10
402.684220623081
 20
211.765389702714
 30
0.0
 11
412.366096920368
 21
221.447266
 31
0.0
  0
LINE
  5
107
100
AcDbEntity
  8
0
  6
BYBLOCK
 62
           0
100
AcDbLine
 10
390.926161869236
 20
210.613932666667
 30
0.0
 11
401.75949520257
 21
221.447266
 31
0.0
  0
LINE
  5
108
100
AcDbEntity
  8
0
  6
BYBLOCK
 62
           0
100
AcDbLine
 10
380.319560151438
 20
210.613932666667
 30
0.0
 11
391.152893484771
 21
221.447266
 31
0.0
  0
LINE
  5
109
100
AcDbEntity
  8
0
  6
BYBLOCK
 62
           0
100
AcDbLine
 10
369.71295843364
 20
210.613932666667
 30
0.0
 11
380.546291766973
 21
221.447266
 31
0.0
  0
LINE
  5
10A
100
AcDbEntity
  8
0
  6
BYBLOCK
 62
           0
100
AcDbLine
 10
359.106356715842
 20
210.613932666667
 30
0.0
 11
369.939690049175
 21
221.447266
 31
0.0
  0
LINE
  5
10B
100
AcDbEntity
  8
0
  6
BYBLOCK
 62
           0
100
AcDbLine
 10
348.499754998043
 20
210.613932666667
 30
0.0
 11
359.333088331377
 21
221.447266
 31
0.0
  0
LINE
  5
10C
100
AcDbEntity
  8
0
  6
BYBLOCK
 62
           0
100
AcDbLine
 10
337.893153280245
 20
210.613932666667
 30
0.0
 11
348.726486613579
 21
221.447266
 31
0.0
  0
LINE
  5
10D
100
AcDbEntity
  8
0
  6
BYBLOCK
 62
           0
100
AcDbLine
 10
327.863314058508
 20
211.190695162727
 30
0.0
 11
338.11988489578
 21
221.447266
 31
0.0
  0
LINE
  5
10E
100
AcDbEntity
  8
0
  6
BYBLOCK
 62
           0
100
AcDbLine
 10
316.679949844649
 20
210.613932666667
 30
0.0
 11
327.513283177982
 21
221.447266
 31
0.0
  0
LINE
  5
10F
100
AcDbEntity
  8
0
  6
BYBLOCK
 62
           0
100
AcDbLine
 10
311.645750666666
 20
216.186335206483
 30
0.0
 11
316.906681460184
 21
221.447266
 31
0.0
  0
ENDBLK
  5
110
100
AcDbEntity
  8
0
  6
BYBLOCK
 62
           0
100
AcDbBlockEnd
  0
ENDSEC
  0
SECTION
  2
ENTITIES
  0
INSERT
  5
29
100
AcDbEntity
  8
LC-003-002-----0
  6
AUSGEZOGEN
 62
           1
100
AcDbBlockReference
  2
KM08_1
 10
601.645750666667
 20
230.822266
 30
0.0
 41
1.25
 42
1.25
 43
1.25
 50
269.999999999999
  0
INSERT
  5
2A
100
AcDbEntity
  8
LC-008-003-----0
  6
STRICHLINIE
 62
           2
100
AcDbBlockReference
  2
KM08_2
 10
601.645750666667
 20
127.072266
 30
0.0
 41
-1.25
 42
1.25
 43
1.25
 50
269.999999999999
  0
LINE
  5
2B
100
AcDbEntity
  8
LC-004-005-----0
  6
AUSGEZOGEN
 62
           2
100
AcDbLine
 10
640.228515666666
 20
203.947266
 30
0.0
 11
640.228515666666
 21
203.947266
 31
0.0
  0
LINE
  5
2C
100
AcDbEntity
  8
LC-004-005-----0
  6
AUSGEZOGEN
 62
           2
100
AcDbLine
 10
640.228515666666
 20
203.947266
 30
0.0
 11
638.227375666666
 21
200.659759333333
 31
0.0
  0
LINE
  5
2D
100
AcDbEntity
  8
LC-004-005-----0
  6
AUSGEZOGEN
 62
           2
100
AcDbLine
 10
638.227375666666
 20
200.659759333333
 30
0.0
 11
636.946349
 21
196.701121
 31
0.0
  0
LINE
  5
2E
100
AcDbEntity
  8
LC-004-005-----0
  6
AUSGEZOGEN
 62
           2
100
AcDbLine
 10
636.946349
 20
196.701121
 30
0.0
 11
637.007894
 21
193.199864333333
 31
0.0
  0
LINE
  5
2F
100
AcDbEntity
  8
LC-004-005-----0
  6
AUSGEZOGEN
 62
           2
100
AcDbLine
 10
637.007894
 20
193.199864333333
 30
0.0
 11
637.802774
 21
189.962789333333
 31
0.0
  0
LINE
  5
30
100
AcDbEntity
  8
LC-004-005-----0
  6
AUSGEZOGEN
 62
           2
100
AcDbLine
 10
637.802774
 20
189.962789333333
 30
0.0
 11
638.721760666666
 21
186.796641
 31
0.0
  0
LINE
  5
31
100
AcDbEntity
  8
LC-004-005-----0
  6
AUSGEZOGEN
 62
           2
100
AcDbLine
 10
638.721760666666
 20
186.796641
 30
0.0
 11
639.155619
 21
183.508194333333
 31
0.0
  0
LINE
  5
32
100
AcDbEntity
  8
LC-004-005-----0
  6
AUSGEZOGEN
 62
           2
100
AcDbLine
 10
639.155619
 20
183.508194333333
 30
0.0
 11
638.495117333333
 21
179.904169333333
 31
0.0
  0
LINE
  5
33
100
AcDbEntity
  8
LC-004-005-----0
  6
AUSGEZOGEN
 62
           2
100
AcDbLine
 10
638.495117333333
 20
179.904169333333
 30
0.0
 11
638.495117333333
 21
179.904169333333
 31
0.0
  0
LINE
  5
34
100
AcDbEntity
  8
LC-004-005-----0
  6
AUSGEZOGEN
 62
           2
100
AcDbLine
 10
638.495117333333
 20
179.904169333333
 30
0.0
 11
637.959635666666
 21
177.683761
 31
0.0
  0
LINE
  5
35
100
AcDbEntity
  8
LC-004-005-----0
  6
AUSGEZOGEN
 62
           2
100
AcDbLine
 10
637.959635666666
 20
177.683761
 30
0.0
 11
637.959635666666
 21
177.683761
 31
0.0
  0
LINE
  5
36
100
AcDbEntity
  8
LC-004-005-----0
  6
AUSGEZOGEN
 62
           2
100
AcDbLine
 10
637.959635666666
 20
177.683761
 30
0.0
 11
638.487371560821
 21
173.482393177173
 31
0.0
  0
LINE
  5
37
100
AcDbEntity
  8
LC-004-005-----0
  6
AUSGEZOGEN
 62
           2
100
AcDbLine
 10
638.487371560821
 20
173.482393177173
 30
0.0
 11
637.336749206248
 21
170.504283576223
 31
0.0
  0
LINE
  5
38
100
AcDbEntity
  8
LC-004-005-----0
  6
AUSGEZOGEN
 62
           2
100
AcDbLine
 10
637.336749206248
 20
170.504283576223
 30
0.0
 11
638.680443473196
 21
168.163346726546
 31
0.0
  0
LINE
  5
39
100
AcDbEntity
  8
LC-004-005-----0
  6
AUSGEZOGEN
 62
           2
100
AcDbLine
 10
638.680443473196
 20
168.163346726546
 30
0.0
 11
637.782898288915
 21
165.933223073678
 31
0.0
  0
LINE
  5
3A
100
AcDbEntity
  8
LC-004-005-----0
  6
AUSGEZOGEN
 62
           2
100
AcDbLine
 10
637.782898288915
 20
165.933223073678
 30
0.0
 11
639.136697333333
 21
164.440632666667
 31
0.0
  0
LINE
  5
3B
100
AcDbEntity
  8
LC-004-005-----0
  6
AUSGEZOGEN
 62
           2
100
AcDbLine
 10
639.136697333333
 20
164.440632666667
 30
0.0
 11
638.403157333333
 21
159.930491
 31
0.0
  0
LINE
  5
3C
100
AcDbEntity
  8
LC-004-005-----0
  6
AUSGEZOGEN
 62
           2
100
AcDbLine
 10
638.403157333333
 20
159.930491
 30
0.0
 11
640.101562333333
 21
155.742971
 31
0.0
  0
LINE
  5
3D
100
AcDbEntity
  8
LC-004-005-----0
  6
AUSGEZOGEN
 62
           2
100
AcDbLine
 10
640.101562333333
 20
155.742971
 30
0.0
 11
640.101562333333
 21
155.742971
 31
0.0
  0
LINE
  5
3E
100
AcDbEntity
  8
LC-004-005-----0
  6
AUSGEZOGEN
 62
           2
100
AcDbLine
 10
640.101562333333
 20
155.742971
 30
0.0
 11
641.837191047508
 21
153.947266
 31
0.0
  0
LINE
  5
3F
100
AcDbEntity
  8
LC-004-005-----0
  6
AUSGEZOGEN
 62
           2
100
AcDbLine
 10
270.369709
 20
203.947266
 30
0.0
 11
270.369709
 21
203.947266
 31
0.0
  0
LINE
  5
40
100
AcDbEntity
  8
LC-004-005-----0
  6
AUSGEZOGEN
 62
           2
100
AcDbLine
 10
270.369709
 20
203.947266
 30
0.0
 11
271.440622333333
 21
199.852341
 31
0.0
  0
LINE
  5
41
100
AcDbEntity
  8
LC-004-005-----0
  6
AUSGEZOGEN
 62
           2
100
AcDbLine
 10
271.440622333333
 20
199.852341
 30
0.0
 11
272.085967333333
 21
195.279027666667
 31
0.0
  0
LINE
  5
42
100
AcDbEntity
  8
LC-004-005-----0
  6
AUSGEZOGEN
 62
           2
100
AcDbLine
 10
272.085967333333
 20
195.279027666667
 30
0.0
 11
272.023762333333
 21
191.370921
 31
0.0
  0
LINE
  5
43
100
AcDbEntity
  8
LC-004-005-----0
  6
AUSGEZOGEN
 62
           2
100
AcDbLine
 10
272.023762333333
 20
191.370921
 30
0.0
 11
271.510812333333
 21
187.922942666667
 31
0.0
  0
LINE
  5
44
100
AcDbEntity
  8
LC-004-005-----0
  6
AUSGEZOGEN
 62
           2
100
AcDbLine
 10
271.510812333333
 20
187.922942666667
 30
0.0
 11
270.803770666667
 21
184.730066
 31
0.0
  0
LINE
  5
45
100
AcDbEntity
  8
LC-004-005-----0
  6
AUSGEZOGEN
 62
           2
100
AcDbLine
 10
270.803770666667
 20
184.730066
 30
0.0
 11
270.159342333333
 21
181.587214333333
 31
0.0
  0
LINE
  5
46
100
AcDbEntity
  8
LC-004-005-----0
  6
AUSGEZOGEN
 62
           2
100
AcDbLine
 10
270.159342333333
 20
181.587214333333
 30
0.0
 11
269.834227333333
 21
178.289331
 31
0.0
  0
LINE
  5
47
100
AcDbEntity
  8
LC-004-005-----0
  6
AUSGEZOGEN
 62
           2
100
AcDbLine
 10
269.834227333333
 20
178.289331
 30
0.0
 11
269.834227333333
 21
178.289331
 31
0.0
  0
LINE
  5
48
100
AcDbEntity
  8
LC-004-005-----0
  6
AUSGEZOGEN
 62
           2
100
AcDbLine
 10
269.834227333333
 20
178.289331
 30
0.0
 11
269.834227333333
 21
176.283742666667
 31
0.0
  0
LINE
  5
49
100
AcDbEntity
  8
LC-004-005-----0
  6
AUSGEZOGEN
 62
           2
100
AcDbLine
 10
269.834227333333
 20
176.283742666667
 30
0.0
 11
269.695067333333
 21
171.876597666667
 31
0.0
  0
LINE
  5
4A
100
AcDbEntity
  8
LC-004-005-----0
  6
AUSGEZOGEN
 62
           2
100
AcDbLine
 10
269.695067333333
 20
171.876597666667
 30
0.0
 11
269.347930666667
 21
166.969472666667
 31
0.0
  0
LINE
  5
4B
100
AcDbEntity
  8
LC-004-005-----0
  6
AUSGEZOGEN
 62
           2
100
AcDbLine
 10
269.347930666667
 20
166.969472666667
 30
0.0
 11
268.896829
 21
162.142684333333
 31
0.0
  0
LINE
  5
4C
100
AcDbEntity
  8
LC-004-005-----0
  6
AUSGEZOGEN
 62
           2
100
AcDbLine
 10
268.896829
 20
162.142684333333
 30
0.0
 11
268.445780666667
 21
157.976526
 31
0.0
  0
LINE
  5
4D
100
AcDbEntity
  8
LC-004-005-----0
  6
AUSGEZOGEN
 62
           2
100
AcDbLine
 10
268.445780666667
 20
157.976526
 30
0.0
 11
268.098845666667
 21
155.051289333333
 31
0.0
  0
LINE
  5
4E
100
AcDbEntity
  8
LC-004-005-----0
  6
AUSGEZOGEN
 62
           2
100
AcDbLine
 10
268.098845666667
 20
155.051289333333
 30
0.0
 11
267.960092333333
 21
153.947266
 31
0.0
  0
LINE
  5
4F
100
AcDbEntity
  8
LC-005-002-RND-0
  6
STRICHPUNKT
 62
           2
100
AcDbLine
 10
643.314350666666
 20
178.947266
 30
0.0
 11
266.621389
 21
178.947266
 31
0.0
  0
LINE
  5
50
100
AcDbEntity
  8
LC-003-002-----0
  6
AUSGEZOGEN
 62
           1
100
AcDbLine
 10
601.645750666667
 20
115.697266
 30
0.0
 11
601.645750666667
 21
178.947266
 31
0.0
  0
LINE
  5
51
100
AcDbEntity
  8
LC-003-002-----0
  6
AUSGEZOGEN
 62
           1
100
AcDbLine
 10
581.979084
 20
221.447266
 30
0.0
 11
314.145750666667
 21
221.447266
 31
0.0
  0
LINE
  5
52
100
AcDbEntity
  8
LC-003-002-----0
  6
AUSGEZOGEN
 62
           1
100
AcDbLine
 10
581.979084
 20
136.447266
 30
0.0
 11
314.145750666667
 21
136.447266
 31
0.0
  0
LINE
  5
53
100
AcDbEntity
  8
LC-003-002-----0
  6
AUSGEZOGEN
 62
           1
100
AcDbLine
 10
583.645750666667
 20
242.197266
 30
0.0
 11
583.645750666667
 21
220.947261
 31
0.0
  0
LINE
  5
54
100
AcDbEntity
  8
LC-003-002-----0
  6
AUSGEZOGEN
 62
           1
100
AcDbLine
 10
600.395750666667
 20
243.447266
 30
0.0
 11
584.895750666667
 21
243.447266
 31
0.0
  0
LINE
  5
55
100
AcDbEntity
  8
LC-003-002-----0
  6
AUSGEZOGEN
 62
           1
100
AcDbLine
 10
584.895750666667
 20
114.447266
 30
0.0
 11
600.395750666667
 21
114.447266
 31
0.0
  0
LINE
  5
56
100
AcDbEntity
  8
LC-003-002-----0
  6
AUSGEZOGEN
 62
           1
100
AcDbLine
 10
311.645750666667
 20
218.947266
 30
0.0
 11
311.645750666667
 21
203.947266
 31
0.0
  0
LINE
  5
57
100
AcDbEntity
  8
LC-005-002-RND-0
  6
STRICHPUNKT
 62
           2
100
AcDbLine
 10
456.6457515
 20
234.027729333333
 30
0.0
 11
456.6457515
 21
208.373534333333
 31
0.0
  0
LINE
  5
58
100
AcDbEntity
  8
LC-005-002-RND-0
  6
STRICHPUNKT
 62
           2
100
AcDbLine
 10
707.034749
 20
178.947266
 30
0.0
 11
851.467427333333
 21
178.947266
 31
0.0
  0
LINE
  5
59
100
AcDbEntity
  8
LC-005-002-RND-0
  6
STRICHPUNKT
 62
           2
100
AcDbLine
 10
778.540180666667
 20
106.731079333333
 30
0.0
 11
778.540180666667
 21
250.316487666667
 31
0.0
  0
ARC
  5
5A
100
AcDbEntity
  8
LC-003-002-----0
  6
AUSGEZOGEN
 62
           1
100
AcDbCircle
 10
314.145750666667
 20
218.947266
 30
0.0
 40
2.5
100
AcDbArc
 50
90.000002999999
 51
180.000008999997
  0
LINE
  5
5B
100
AcDbEntity
  8
LC-003-002-----0
  6
AUSGEZOGEN
 62
           1
100
AcDbLine
 10
267.960092333333
 20
153.947266
 30
0.0
 11
311.645750666667
 21
153.947266
 31
0.0
  0
LINE
  5
5C
100
AcDbEntity
  8
LC-003-002-----0
  6
AUSGEZOGEN
 62
           1
100
AcDbLine
 10
509.500772333333
 20
210.613932666667
 30
0.0
 11
403.790730666667
 21
210.613932666667
 31
0.0
  0
LINE
  5
5D
100
AcDbEntity
  8
LC-003-002-----0
  6
AUSGEZOGEN
 62
           1
100
AcDbLine
 10
601.645750666667
 20
203.947266
 30
0.0
 11
640.228515666666
 21
203.947266
 31
0.0
  0
LINE
  5
5E
100
AcDbEntity
  8
LC-003-002-----0
  6
AUSGEZOGEN
 62
           1
100
AcDbLine
 10
581.979084
 20
221.447266
 30
0.0
 11
581.979084
 21
220.947261
 31
0.0
  0
LINE
  5
5F
100
AcDbEntity
  8
LC-003-002-----0
  6
AUSGEZOGEN
 62
           1
100
AcDbLine
 10
583.645750666667
 20
220.947261
 30
0.0
 11
581.979084
 21
220.947261
 31
0.0
  0
LINE
  5
60
100
AcDbEntity
  8
LC-003-002-----0
  6
AUSGEZOGEN
 62
           1
100
AcDbLine
 10
583.645750666667
 20
136.947271
 30
0.0
 11
581.979084
 21
136.947271
 31
0.0
  0
ARC
  5
61
100
AcDbEntity
  8
LC-003-002-----0
  6
AUSGEZOGEN
 62
           1
100
AcDbCircle
 10
314.145750666666
 20
138.947266
 30
0.0
 40
2.5
100
AcDbArc
 50
180.000008999997
 51
269.999997000003
  0
LINE
  5
62
100
AcDbEntity
  8
LC-003-002-----0
  6
AUSGEZOGEN
 62
           1
100
AcDbLine
 10
585.312417333333
 20
178.947266
 30
0.0
 11
585.312417333333
 21
114.447266
 31
0.0
  0
LINE
  5
63
100
AcDbEntity
  8
LC-003-002-----0
  6
AUSGEZOGEN
 62
           1
100
AcDbLine
 10
599.979084
 20
178.947266
 30
0.0
 11
599.979084
 21
114.447266
 31
0.0
  0
LINE
  5
64
100
AcDbEntity
  8
LC-008-003-----0
  6
STRICHLINIE
 62
           2
100
AcDbLine
 10
311.645750666667
 20
153.947266
 30
0.0
 11
601.645750666667
 21
153.947266
 31
0.0
  0
LINE
  5
65
100
AcDbEntity
  8
LC-003-002-----0
  6
AUSGEZOGEN
 62
           1
100
AcDbLine
 10
601.645750666667
 20
153.947266
 30
0.0
 11
641.837191047508
 21
153.947266
 31
0.0
  0
LINE
  5
66
100
AcDbEntity
  8
LC-003-002-----0
  6
AUSGEZOGEN
 62
           1
100
AcDbLine
 10
311.645750666667
 20
178.947266
 30
0.0
 11
311.645750666667
 21
138.947266
 31
0.0
  0
LINE
  5
67
100
AcDbEntity
  8
LC-003-002-----0
  6
AUSGEZOGEN
 62
           1
100
AcDbLine
 10
581.979084
 20
178.947266
 30
0.0
 11
581.979084
 21
136.447266
 31
0.0
  0
LINE
  5
68
100
AcDbEntity
  8
LC-003-002-----0
  6
AUSGEZOGEN
 62
           1
100
AcDbLine
 10
583.645750666667
 20
178.947266
 30
0.0
 11
583.645750666667
 21
115.697266
 31
0.0
  0
LINE
  5
69
100
AcDbEntity
  8
LC-003-002-----0
  6
AUSGEZOGEN
 62
           1
100
AcDbLine
 10
601.645750666667
 20
203.947266
 30
0.0
 11
601.645750666667
 21
242.197266
 31
0.0
  0
LINE
  5
6A
100
AcDbEntity
  8
LC-003-002-----0
  6
AUSGEZOGEN
 62
           1
100
AcDbLine
 10
601.645750666667
 20
203.947266
 30
0.0
 11
311.645750666667
 21
203.947266
 31
0.0
  0
LINE
  5
6B
100
AcDbEntity
  8
LC-003-002-----0
  6
AUSGEZOGEN
 62
           1
100
AcDbLine
 10
597.479084
 20
210.613932666667
 30
0.0
 11
592.124064
 21
210.613932666667
 31
0.0
  0
LINE
  5
6C
100
AcDbEntity
  8
LC-003-002-----0
  6
AUSGEZOGEN
 62
           1
100
AcDbLine
 10
499.979084
 20
210.613932666667
 30
0.0
 11
499.979084
 21
203.947266
 31
0.0
  0
LINE
  5
6D
100
AcDbEntity
  8
LC-003-002-----0
  6
AUSGEZOGEN
 62
           1
100
AcDbLine
 10
601.645750666667
 20
212.280599333333
 30
0.0
 11
599.562417333333
 21
212.280599333333
 31
0.0
  0
ARC
  5
6E
100
AcDbEntity
  8
LC-003-002-----0
  6
AUSGEZOGEN
 62
           1
100
AcDbCircle
 10
589.237304
 20
208.947266
 30
0.0
 40
3.333333333333
100
AcDbArc
 50
228.590384
 51
149.999996999999
  0
CIRCLE
  5
6F
100
AcDbEntity
  8
LC-003-002-----0
  6
AUSGEZOGEN
 62
           1
100
AcDbCircle
 10
550.812417333333
 20
207.280599333333
 30
0.0
 40
3.333333333333
  0
LINE
  5
70
100
AcDbEntity
  8
LC-003-002-----0
  6
AUSGEZOGEN
 62
           1
100
AcDbLine
 10
315.812417333333
 20
210.613932666667
 30
0.0
 11
321.167439
 21
210.613932666667
 31
0.0
  0
CIRCLE
  5
71
100
AcDbEntity
  8
LC-003-002-----0
  6
AUSGEZOGEN
 62
           1
100
AcDbCircle
 10
557.479084
 20
207.280599333333
 30
0.0
 40
3.333333333333
  0
CIRCLE
  5
72
100
AcDbEntity
  8
LC-003-002-----0
  6
AUSGEZOGEN
 62
           1
100
AcDbCircle
 10
564.145750666667
 20
207.280599333333
 30
0.0
 40
3.333333333333
  0
CIRCLE
  5
73
100
AcDbEntity
  8
LC-003-002-----0
  6
AUSGEZOGEN
 62
           1
100
AcDbCircle
 10
570.812417333333
 20
207.280599333333
 30
0.0
 40
3.333333333333
  0
CIRCLE
  5
74
100
AcDbEntity
  8
LC-003-002-----0
  6
AUSGEZOGEN
 62
           1
100
AcDbCircle
 10
577.479084
 20
207.280599333333
 30
0.0
 40
3.333333333333
  0
CIRCLE
  5
75
100
AcDbEntity
  8
LC-003-002-----0
  6
AUSGEZOGEN
 62
           1
100
AcDbCircle
 10
584.145750666667
 20
208.113932666667
 30
0.0
 40
3.333333333333
  0
LINE
  5
76
100
AcDbEntity
  8
LC-003-002-----0
  6
AUSGEZOGEN
 62
           1
100
AcDbLine
 10
413.312417333333
 20
210.613932666667
 30
0.0
 11
413.312417333333
 21
203.947266
 31
0.0
  0
LINE
  5
77
100
AcDbEntity
  8
LC-003-002-----0
  6
AUSGEZOGEN
 62
           1
100
AcDbLine
 10
519.683877333333
 20
210.613932666667
 30
0.0
 11
581.940957333333
 21
210.613932666667
 31
0.0
  0
LINE
  5
78
100
AcDbEntity
  8
LC-003-002-----0
  6
AUSGEZOGEN
 62
           1
100
AcDbLine
 10
592.124064
 20
210.613932666667
 30
0.0
 11
597.479084
 21
210.613932666667
 31
0.0
  0
CIRCLE
  5
79
100
AcDbEntity
  8
LC-003-002-----0
  6
AUSGEZOGEN
 62
           1
100
AcDbCircle
 10
544.145750666667
 20
207.280599333333
 30
0.0
 40
3.333333333333
  0
CIRCLE
  5
7A
100
AcDbEntity
  8
LC-003-002-----0
  6
AUSGEZOGEN
 62
           1
100
AcDbCircle
 10
537.479084
 20
207.280599333333
 30
0.0
 40
3.333333333333
  0
CIRCLE
  5
7B
100
AcDbEntity
  8
LC-003-002-----0
  6
AUSGEZOGEN
 62
           1
100
AcDbCircle
 10
530.812417333333
 20
207.280599333333
 30
0.0
 40
3.333333333333
  0
CIRCLE
  5
7C
100
AcDbEntity
  8
LC-003-002-----0
  6
AUSGEZOGEN
 62
           1
100
AcDbCircle
 10
524.145750666667
 20
207.280599333333
 30
0.0
 40
3.333333333333
  0
CIRCLE
  5
7D
100
AcDbEntity
  8
LC-003-002-----0
  6
AUSGEZOGEN
 62
           1
100
AcDbCircle
 10
517.479084
 20
208.113932666667
 30
0.0
 40
3.333333333333
  0
ARC
  5
7E
100
AcDbEntity
  8
LC-003-002-----0
  6
AUSGEZOGEN
 62
           1
100
AcDbCircle
 10
512.387532333333
 20
208.947266
 30
0.0
 40
3.333333333333
100
AcDbArc
 50
30.000000999999
 51
311.409620999999
  0
LINE
  5
7F
100
AcDbEntity
  8
LC-003-002-----0
  6
AUSGEZOGEN
 62
           1
100
AcDbLine
 10
599.562417333333
 20
213.947266
 30
0.0
 11
598.312417333333
 21
213.947266
 31
0.0
  0
LINE
  5
80
100
AcDbEntity
  8
LC-003-002-----0
  6
AUSGEZOGEN
 62
           1
100
AcDbLine
 10
599.562417333333
 20
213.947266
 30
0.0
 11
599.562417333333
 21
203.947266
 31
0.0
  0
LINE
  5
81
100
AcDbEntity
  8
LC-003-002-----0
  6
AUSGEZOGEN
 62
           1
100
AcDbLine
 10
598.312417333333
 20
213.947266
 30
0.0
 11
598.312417333333
 21
203.947266
 31
0.0
  0
LINE
  5
82
100
AcDbEntity
  8
LC-003-002-----0
  6
AUSGEZOGEN
 62
           1
100
AcDbLine
 10
597.479084
 20
212.280599333333
 30
0.0
 11
597.479084
 21
203.947266
 31
0.0
  0
LINE
  5
83
100
AcDbEntity
  8
LC-003-002-----0
  6
AUSGEZOGEN
 62
           1
100
AcDbLine
 10
598.312417333333
 20
212.280599333333
 30
0.0
 11
597.479084
 21
212.280599333333
 31
0.0
  0
LINE
  5
84
100
AcDbEntity
  8
LC-003-002-----0
  6
AUSGEZOGEN
 62
           1
100
AcDbLine
 10
311.645750666667
 20
212.280599333333
 30
0.0
 11
313.729084
 21
212.280599333333
 31
0.0
  0
ARC
  5
85
100
AcDbEntity
  8
LC-003-002-----0
  6
AUSGEZOGEN
 62
           1
100
AcDbCircle
 10
324.054199
 20
208.947266
 30
0.0
 40
3.333333333333
100
AcDbArc
 50
30.000001
 51
311.409621
  0
CIRCLE
  5
86
100
AcDbEntity
  8
LC-003-002-----0
  6
AUSGEZOGEN
 62
           1
100
AcDbCircle
 10
362.479084
 20
207.280599333333
 30
0.0
 40
3.333333333333
  0
CIRCLE
  5
87
100
AcDbEntity
  8
LC-003-002-----0
  6
AUSGEZOGEN
 62
           1
100
AcDbCircle
 10
355.812417333333
 20
207.280599333333
 30
0.0
 40
3.333333333333
  0
CIRCLE
  5
88
100
AcDbEntity
  8
LC-003-002-----0
  6
AUSGEZOGEN
 62
           1
100
AcDbCircle
 10
349.145750666667
 20
207.280599333333
 30
0.0
 40
3.333333333333
  0
CIRCLE
  5
89
100
AcDbEntity
  8
LC-003-002-----0
  6
AUSGEZOGEN
 62
           1
100
AcDbCircle
 10
342.479084
 20
207.280599333333
 30
0.0
 40
3.333333333333
  0
CIRCLE
  5
8A
100
AcDbEntity
  8
LC-003-002-----0
  6
AUSGEZOGEN
 62
           1
100
AcDbCircle
 10
335.812417333333
 20
207.280599333333
 30
0.0
 40
3.333333333333
  0
CIRCLE
  5
8B
100
AcDbEntity
  8
LC-003-002-----0
  6
AUSGEZOGEN
 62
           1
100
AcDbCircle
 10
329.145750666667
 20
208.113932666667
 30
0.0
 40
3.333333333333
  0
LINE
  5
8C
100
AcDbEntity
  8
LC-003-002-----0
  6
AUSGEZOGEN
 62
           1
100
AcDbLine
 10
393.607624
 20
210.613932666667
 30
0.0
 11
331.350544
 21
210.613932666667
 31
0.0
  0
LINE
  5
8D
100
AcDbEntity
  8
LC-003-002-----0
  6
AUSGEZOGEN
 62
           1
100
AcDbLine
 10
321.167439
 20
210.613932666667
 30
0.0
 11
315.812417333333
 21
210.613932666667
 31
0.0
  0
CIRCLE
  5
8E
100
AcDbEntity
  8
LC-003-002-----0
  6
AUSGEZOGEN
 62
           1
100
AcDbCircle
 10
369.145750666667
 20
207.280599333333
 30
0.0
 40
3.333333333333
  0
CIRCLE
  5
8F
100
AcDbEntity
  8
LC-003-002-----0
  6
AUSGEZOGEN
 62
           1
100
AcDbCircle
 10
375.812417333333
 20
207.280599333333
 30
0.0
 40
3.333333333333
  0
CIRCLE
  5
90
100
AcDbEntity
  8
LC-003-002-----0
  6
AUSGEZOGEN
 62
           1
100
AcDbCircle
 10
382.479084
 20
207.280599333333
 30
0.0
 40
3.333333333333
  0
CIRCLE
  5
91
100
AcDbEntity
  8
LC-003-002-----0
  6
AUSGEZOGEN
 62
           1
100
AcDbCircle
 10
389.145750666667
 20
207.280599333333
 30
0.0
 40
3.333333333333
  0
CIRCLE
  5
92
100
AcDbEntity
  8
LC-003-002-----0
  6
AUSGEZOGEN
 62
           1
100
AcDbCircle
 10
395.812417333333
 20
208.113932666667
 30
0.0
 40
3.333333333333
  0
ARC
  5
93
100
AcDbEntity
  8
LC-003-002-----0
  6
AUSGEZOGEN
 62
           1
100
AcDbCircle
 10
400.903970666667
 20
208.947266
 30
0.0
 40
3.333333333333
100
AcDbArc
 50
228.590384
 51
149.999997
  0
LINE
  5
94
100
AcDbEntity
  8
LC-003-002-----0
  6
AUSGEZOGEN
 62
           1
100
AcDbLine
 10
313.729084
 20
213.947266
 30
0.0
 11
314.979084
 21
213.947266
 31
0.0
  0
LINE
  5
95
100
AcDbEntity
  8
LC-003-002-----0
  6
AUSGEZOGEN
 62
           1
100
AcDbLine
 10
313.729084
 20
213.947266
 30
0.0
 11
313.729084
 21
203.947266
 31
0.0
  0
LINE
  5
96
100
AcDbEntity
  8
LC-003-002-----0
  6
AUSGEZOGEN
 62
           1
100
AcDbLine
 10
314.979084
 20
213.947266
 30
0.0
 11
314.979084
 21
203.947266
 31
0.0
  0
LINE
  5
97
100
AcDbEntity
  8
LC-003-002-----0
  6
AUSGEZOGEN
 62
           1
100
AcDbLine
 10
315.812417333333
 20
212.280599333333
 30
0.0
 11
315.812417333333
 21
203.947266
 31
0.0
  0
LINE
  5
98
100
AcDbEntity
  8
LC-003-002-----0
  6
AUSGEZOGEN
 62
           1
100
AcDbLine
 10
314.979084
 20
212.280599333333
 30
0.0
 11
315.812417333333
 21
212.280599333333
 31
0.0
  0
LINE
  5
99
100
AcDbEntity
  8
LC-003-002-----0
  6
AUSGEZOGEN
 62
           1
100
AcDbLine
 10
311.645750666667
 20
203.947266
 30
0.0
 11
270.369709
 21
203.947266
 31
0.0
  0
CIRCLE
  5
9A
100
AcDbEntity
  8
LC-003-002-----0
  6
AUSGEZOGEN
 62
           1
100
AcDbCircle
 10
778.540180666667
 20
178.947266
 30
0.0
 40
25.0
  0
LINE
  5
9B
100
AcDbEntity
  8
LC-005-002-RND-0
  6
STRICHPUNKT
 62
           2
100
AcDbLine
 10
604.689472333333
 20
125.447266
 30
0.0
 11
581.399352333333
 21
125.447266
 31
0.0
  0
LINE
  5
9C
100
AcDbEntity
  8
LC-005-002-RND-0
  6
STRICHPUNKT
 62
           2
100
AcDbLine
 10
604.689472333333
 20
232.447266
 30
0.0
 11
581.399352333333
 21
232.447266
 31
0.0
  0
LINE
  5
9D
100
AcDbEntity
  8
LC-003-002-----0
  6
AUSGEZOGEN
 62
           1
100
AcDbLine
 10
584.895750666667
 20
243.447266
 30
0.0
 11
583.645750666667
 21
242.197266
 31
0.0
  0
LINE
  5
9E
100
AcDbEntity
  8
LC-003-002-----0
  6
AUSGEZOGEN
 62
           1
100
AcDbLine
 10
600.395750666667
 20
243.447266
 30
0.0
 11
601.645750666667
 21
242.197266
 31
0.0
  0
LINE
  5
9F
100
AcDbEntity
  8
LC-003-002-----0
  6
AUSGEZOGEN
 62
           1
100
AcDbLine
 10
601.645750666667
 20
115.697266
 30
0.0
 11
600.395750666667
 21
114.447266
 31
0.0
  0
LINE
  5
A0
100
AcDbEntity
  8
LC-003-002-----0
  6
AUSGEZOGEN
 62
           1
100
AcDbLine
 10
584.895750666667
 20
114.447266
 30
0.0
 11
583.645750666667
 21
115.697266
 31
0.0
  0
CIRCLE
  5
A1
100
AcDbEntity
  8
LC-003-002-----0
  6
AUSGEZOGEN
 62
           1
100
AcDbCircle
 10
778.540180666667
 20
178.947266
 30
0.0
 40
42.5
  0
CIRCLE
  5
A2
100
AcDbEntity
  8
LC-003-002-----0
  6
AUSGEZOGEN
 62
           1
100
AcDbCircle
 10
778.540180666667
 20
178.947266
 30
0.0
 40
63.25
  0
CIRCLE
  5
A3
100
AcDbEntity
  8
LC-003-002-----0
  6
AUSGEZOGEN
 62
           1
100
AcDbCircle
 10
778.540180666667
 20
178.947266
 30
0.0
 40
64.5
  0
CIRCLE
  5
A4
100
AcDbEntity
  8
LC-003-002-----0
  6
AUSGEZOGEN
 62
           1
100
AcDbCircle
 10
778.540180666667
 20
125.447266
 30
0.0
 40
5.5
  0
CIRCLE
  5
A5
100
AcDbEntity
  8
LC-005-002-RND-0
  6
STRICHPUNKT
 62
           2
100
AcDbCircle
 10
778.540180666667
 20
178.947266
 30
0.0
 40
53.5
  0
CIRCLE
  5
A6
100
AcDbEntity
  8
LC-008-003-----0
  6
STRICHLINIE
 62
           2
100
AcDbCircle
 10
778.540180666667
 20
125.447266
 30
0.0
 40
8.5
  0
LINE
  5
A7
100
AcDbEntity
  8
LC-005-002-RND-0
  6
STRICHPUNKT
 62
           2
100
AcDbLine
 10
804.992252452352
 20
205.399372281782
 30
0.0
 11
818.875207452352
 21
219.282353948448
 31
0.0
  0
CIRCLE
  5
A8
100
AcDbEntity
  8
LC-003-002-----0
  6
AUSGEZOGEN
 62
           1
100
AcDbCircle
 10
832.040180666667
 20
178.947266
 30
0.0
 40
5.5
  0
CIRCLE
  5
A9
100
AcDbEntity
  8
LC-008-003-----0
  6
STRICHLINIE
 62
           2
100
AcDbCircle
 10
832.040180666667
 20
178.947266
 30
0.0
 40
8.5
  0
CIRCLE
  5
AA
100
AcDbEntity
  8
LC-003-002-----0
  6
AUSGEZOGEN
 62
           1
100
AcDbCircle
 10
778.540180666667
 20
232.447266
 30
0.0
 40
5.5
  0
CIRCLE
  5
AB
100
AcDbEntity
  8
LC-008-003-----0
  6
STRICHLINIE
 62
           2
100
AcDbCircle
 10
778.540180666667
 20
232.447266
 30
0.0
 40
8.5
  0
CIRCLE
  5
AC
100
AcDbEntity
  8
LC-003-002-----0
  6
AUSGEZOGEN
 62
           1
100
AcDbCircle
 10
725.040180666667
 20
178.947266
 30
0.0
 40
5.5
  0
CIRCLE
  5
AD
100
AcDbEntity
  8
LC-008-003-----0
  6
STRICHLINIE
 62
           2
100
AcDbCircle
 10
725.040180666667
 20
178.947266
 30
0.0
 40
8.5
  0
LINE
  5
AE
100
AcDbEntity
  8
LC-003-002-----0
  6
AUSGEZOGEN
 62
           1
100
AcDbLine
 10
811.438359592696
 20
208.878392853133
 30
0.0
 11
808.471257592696
 21
211.845494853133
 31
0.0
  0
ARC
  5
AF
100
AcDbEntity
  8
LC-003-002-----0
  6
AUSGEZOGEN
 62
           1
100
AcDbCircle
 10
807.795049592696
 20
208.202183853133
 30
0.0
 40
3.054381
100
AcDbArc
 50
21.210871000001
 51
68.789129999999
  0
ARC
  5
B0
100
AcDbEntity
  8
LC-003-002-----0
  6
AUSGEZOGEN
 62
           1
100
AcDbCircle
 10
810.751958592696
 20
211.159092853133
 30
0.0
 40
3.054381
100
AcDbArc
 50
201.210874
 51
248.789132
  0
LINE
  5
B1
100
AcDbEntity
  8
LC-003-002-----0
  6
AUSGEZOGEN
 62
           1
100
AcDbLine
 10
809.247686592696
 20
212.483250853133
 30
0.0
 11
808.540593592696
 21
211.776158853133
 31
0.0
  0
LINE
  5
B2
100
AcDbEntity
  8
LC-003-002-----0
  6
AUSGEZOGEN
 62
           1
100
AcDbLine
 10
812.076116592696
 20
209.654820853133
 30
0.0
 11
811.369024592696
 21
208.947728853133
 31
0.0
  0
LINE
  5
B3
100
AcDbEntity
  8
LC-003-002-----0
  6
AUSGEZOGEN
 62
           1
100
AcDbLine
 10
812.429693592696
 20
209.301274853133
 30
0.0
 11
808.894170592696
 21
212.836827853133
 31
0.0
  0
LINE
  5
B4
100
AcDbEntity
  8
LC-003-002-----0
  6
AUSGEZOGEN
 62
           1
100
AcDbLine
 10
809.601262592696
 20
213.543919853133
 30
0.0
 11
808.894170592696
 21
212.836827853133
 31
0.0
  0
LINE
  5
B5
100
AcDbEntity
  8
LC-003-002-----0
  6
AUSGEZOGEN
 62
           1
100
AcDbLine
 10
813.136785592696
 20
210.008397853133
 30
0.0
 11
812.429693592696
 21
209.301274853133
 31
0.0
  0
LINE
  5
B6
100
AcDbEntity
  8
LC-003-002-----0
  6
AUSGEZOGEN
 62
           1
100
AcDbLine
 10
813.136785592696
 20
210.008397853133
 30
0.0
 11
809.601262592696
 21
213.543919853133
 31
0.0
  0
LINE
  5
B7
100
AcDbEntity
  8
LC-003-002-----0
  6
AUSGEZOGEN
 62
           1
100
AcDbLine
 10
813.843877592696
 20
212.129704853133
 30
0.0
 11
811.722539592696
 21
214.251042853133
 31
0.0
  0
ARC
  5
B8
100
AcDbEntity
  8
LC-003-002-----0
  6
AUSGEZOGEN
 62
           1
100
AcDbCircle
 10
811.369024592696
 20
211.776158853133
 30
0.0
 40
2.338464
100
AcDbArc
 50
13.788703
 51
76.211299000001
  0
LINE
  5
B9
100
AcDbEntity
  8
LC-003-002-----0
  6
AUSGEZOGEN
 62
           1
100
AcDbLine
 10
813.843877592696
 20
212.129704853133
 30
0.0
 11
813.136785592696
 21
210.008397853133
 31
0.0
  0
LINE
  5
BA
100
AcDbEntity
  8
LC-003-002-----0
  6
AUSGEZOGEN
 62
           1
100
AcDbLine
 10
811.722539592696
 20
214.251042853133
 30
0.0
 11
809.601262592696
 21
213.543919853133
 31
0.0
  0
LINE
  5
BB
100
AcDbEntity
  8
LC-003-002-----0
  6
AUSGEZOGEN
 62
           1
100
AcDbLine
 10
807.108648592696
 20
210.482884853133
 30
0.0
 11
810.075750592696
 21
207.515751853133
 31
0.0
  0
LINE
  5
BC
100
AcDbEntity
  8
LC-003-002-----0
  6
AUSGEZOGEN
 62
           1
100
AcDbLine
 10
806.679754592696
 20
211.278782853133
 30
0.0
 11
807.675359592696
 21
212.274388853133
 31
0.0
  0
ARC
  5
BD
100
AcDbEntity
  8
LC-003-002-----0
  6
AUSGEZOGEN
 62
           1
100
AcDbCircle
 10
808.222173592696
 20
211.596440853133
 30
0.0
 40
1.574777
100
AcDbArc
 50
191.637435000001
 51
258.362570999999
  0
ARC
  5
BE
100
AcDbEntity
  8
LC-003-002-----0
  6
AUSGEZOGEN
 62
           1
100
AcDbCircle
 10
811.189275592696
 20
208.629307853133
 30
0.0
 40
1.574777
100
AcDbArc
 50
191.637435000001
 51
258.362570999999
  0
LINE
  5
BF
100
AcDbEntity
  8
LC-003-002-----0
  6
AUSGEZOGEN
 62
           1
100
AcDbLine
 10
810.871648592696
 20
207.086888853133
 30
0.0
 11
811.867254592696
 21
208.082493853133
 31
0.0
  0
ARC
  5
C0
100
AcDbEntity
  8
LC-003-002-----0
  6
AUSGEZOGEN
 62
           1
100
AcDbCircle
 10
810.324834592696
 20
207.764836853133
 30
0.0
 40
1.574777
100
AcDbArc
 50
11.637429999999
 51
78.362569000002
  0
ARC
  5
C1
100
AcDbEntity
  8
LC-003-002-----0
  6
AUSGEZOGEN
 62
           1
100
AcDbCircle
 10
807.357671592696
 20
210.731968853133
 30
0.0
 40
1.574777
100
AcDbArc
 50
11.637429999999
 51
78.362569000002
  0
LINE
  5
C2
100
AcDbEntity
  8
LC-003-002-----0
  6
AUSGEZOGEN
 62
           1
100
AcDbLine
 10
808.900090592696
 20
211.049626853133
 30
0.0
 11
807.904485592696
 21
210.054020853133
 31
0.0
  0
LINE
  5
C3
100
AcDbEntity
  8
LC-003-002-----0
  6
AUSGEZOGEN
 62
           1
100
AcDbLine
 10
810.642461592696
 20
209.307255853133
 30
0.0
 11
809.646856592696
 21
208.311650853133
 31
0.0
  0
LINE
  5
C4
100
AcDbEntity
  8
LC-003-002-----0
  6
AUSGEZOGEN
 62
           1
100
AcDbLine
 10
458.7438355
 20
223.374268
 30
0.0
 11
454.5476685
 21
223.374268
 31
0.0
  0
ARC
  5
C5
100
AcDbEntity
  8
LC-003-002-----0
  6
AUSGEZOGEN
 62
           1
100
AcDbCircle
 10
456.6457515
 20
220.319886
 30
0.0
 40
3.054381
100
AcDbArc
 50
66.21087
 51
113.789128
  0
ARC
  5
C6
100
AcDbEntity
  8
LC-003-002-----0
  6
AUSGEZOGEN
 62
           1
100
AcDbCircle
 10
456.6457515
 20
224.501618
 30
0.0
 40
3.054381
100
AcDbArc
 50
246.210872
 51
293.78913
  0
LINE
  5
C7
100
AcDbEntity
  8
LC-003-002-----0
  6
AUSGEZOGEN
 62
           1
100
AcDbLine
 10
454.6457515
 20
224.374268
 30
0.0
 11
454.6457515
 21
223.374268
 31
0.0
  0
LINE
  5
C8
100
AcDbEntity
  8
LC-003-002-----0
  6
AUSGEZOGEN
 62
           1
100
AcDbLine
 10
458.6457515
 20
224.374268
 30
0.0
 11
458.6457515
 21
223.374268
 31
0.0
  0
LINE
  5
C9
100
AcDbEntity
  8
LC-003-002-----0
  6
AUSGEZOGEN
 62
           1
100
AcDbLine
 10
459.1457515
 20
224.374268
 30
0.0
 11
454.1457515
 21
224.374268
 31
0.0
  0
LINE
  5
CA
100
AcDbEntity
  8
LC-003-002-----0
  6
AUSGEZOGEN
 62
           1
100
AcDbLine
 10
454.1457515
 20
225.374268
 30
0.0
 11
454.1457515
 21
224.374268
 31
0.0
  0
LINE
  5
CB
100
AcDbEntity
  8
LC-003-002-----0
  6
AUSGEZOGEN
 62
           1
100
AcDbLine
 10
459.1457515
 20
225.374268
 30
0.0
 11
459.1457515
 21
224.374268
 31
0.0
  0
LINE
  5
CC
100
AcDbEntity
  8
LC-003-002-----0
  6
AUSGEZOGEN
 62
           1
100
AcDbLine
 10
459.1457515
 20
225.374268
 30
0.0
 11
454.1457515
 21
225.374268
 31
0.0
  0
LINE
  5
CD
100
AcDbEntity
  8
LC-003-002-----0
  6
AUSGEZOGEN
 62
           1
100
AcDbLine
 10
458.1457515
 20
227.374268
 30
0.0
 11
455.1457515
 21
227.374268
 31
0.0
  0
ARC
  5
CE
100
AcDbEntity
  8
LC-003-002-----0
  6
AUSGEZOGEN
 62
           1
100
AcDbCircle
 10
456.6457515
 20
225.374268
 30
0.0
 40
2.338464
100
AcDbArc
 50
58.788702
 51
121.211296
  0
LINE
  5
CF
100
AcDbEntity
  8
LC-003-002-----0
  6
AUSGEZOGEN
 62
           1
100
AcDbLine
 10
458.1457515
 20
227.374268
 30
0.0
 11
459.1457515
 21
225.374268
 31
0.0
  0
LINE
  5
D0
100
AcDbEntity
  8
LC-003-002-----0
  6
AUSGEZOGEN
 62
           1
100
AcDbLine
 10
455.1457515
 20
227.374268
 30
0.0
 11
454.1457515
 21
225.374268
 31
0.0
  0
LINE
  5
D1
100
AcDbEntity
  8
LC-003-002-----0
  6
AUSGEZOGEN
 62
           1
100
AcDbLine
 10
454.5476685
 20
221.447266
 30
0.0
 11
458.7438355
 21
221.447266
 31
0.0
  0
LINE
  5
D2
100
AcDbEntity
  8
LC-003-002-----0
  6
AUSGEZOGEN
 62
           1
100
AcDbLine
 10
453.6816405
 20
221.706757
 30
0.0
 11
453.6816405
 21
223.114777
 31
0.0
  0
ARC
  5
D3
100
AcDbEntity
  8
LC-003-002-----0
  6
AUSGEZOGEN
 62
           1
100
AcDbCircle
 10
454.5476685
 20
223.022034
 30
0.0
 40
1.574777
100
AcDbArc
 50
236.637426000001
 51
303.362569
  0
ARC
  5
D4
100
AcDbEntity
  8
LC-003-002-----0
  6
AUSGEZOGEN
 62
           1
100
AcDbCircle
 10
458.7438355
 20
223.022034
 30
0.0
 40
1.574777
100
AcDbArc
 50
236.637426000001
 51
303.362569
  0
LINE
  5
D5
100
AcDbEntity
  8
LC-003-002-----0
  6
AUSGEZOGEN
 62
           1
100
AcDbLine
 10
459.6098635
 20
221.706757
 30
0.0
 11
459.6098635
 21
223.114777
 31
0.0
  0
ARC
  5
D6
100
AcDbEntity
  8
LC-003-002-----0
  6
AUSGEZOGEN
 62
           1
100
AcDbCircle
 10
458.7438355
 20
221.7995
 30
0.0
 40
1.574777
100
AcDbArc
 50
56.637430999999
 51
123.362574
  0
ARC
  5
D7
100
AcDbEntity
  8
LC-003-002-----0
  6
AUSGEZOGEN
 62
           1
100
AcDbCircle
 10
454.5476685
 20
221.7995
 30
0.0
 40
1.574777
100
AcDbArc
 50
56.637430999999
 51
123.362574
  0
LINE
  5
D8
100
AcDbEntity
  8
LC-003-002-----0
  6
AUSGEZOGEN
 62
           1
100
AcDbLine
 10
455.4136965
 20
223.114777
 30
0.0
 11
455.4136965
 21
221.706757
 31
0.0
  0
LINE
  5
D9
100
AcDbEntity
  8
LC-003-002-----0
  6
AUSGEZOGEN
 62
           1
100
AcDbLine
 10
457.8778075
 20
223.114777
 30
0.0
 11
457.8778075
 21
221.706757
 31
0.0
  0
LINE
  5
DA
100
AcDbEntity
  8
LC-003-002-----0
  6
AUSGEZOGEN
 62
           1
100
AcDbLine
 10
454.6457515
 20
221.447266
 30
0.0
 11
454.6457515
 21
210.613932666667
 31
0.0
  0
LINE
  5
DB
100
AcDbEntity
  8
LC-003-002-----0
  6
AUSGEZOGEN
 62
           1
100
AcDbLine
 10
458.6457515
 20
221.447266
 30
0.0
 11
458.6457515
 21
210.613932666667
 31
0.0
  0
INSERT
  5
DC
100
AcDbEntity
  8
LC-004-005-----0
  6
AUSGEZOGEN
 62
           2
100
AcDbBlockReference
  2
*X3
 10
0.0
 20
0.0
 30
0.0
  0
ENDSEC
  0
SECTION
  2
OBJECTS
  0
DICTIONARY
  5
19
100
AcDbDictionary
  3
ACAD_GROUP
350
1A
  3
ACAD_MLINESTYLE
350
1B
  0
DICTIONARY
  5
1A
102
{ACAD_REACTORS
330
19
102
}
100
AcDbDictionary
  0
DICTIONARY
  5
1B
102
{ACAD_REACTORS
330
19
102
}
100
AcDbDictionary
  3
STANDARD
350
1C
  0
MLINESTYLE
  5
1C
102
{ACAD_REACTORS
330
1B
102
}
100
AcDbMlineStyle
  2
STANDARD
 70
           0
  3

 62
           0
 51
90.0
 52
90.0
 71
           2
 49
0.5
 62
         256
  6
BYLAYER
 49
-0.5
 62
         256
  6
BYLAYER
  0
ENDSEC
  0
EOF
