  0
SECTION
  2
HEADER
  9
$LIMMIN
 10
396.546967
 20
135.617554
  9
$LIMMAX
 10
747.454590
 20
221.768799
  9
$EXTMIN
 10
396.546967
 20
135.617554
  9
$EXTMAX
 10
747.454590
 20
221.768799
  0
ENDSEC
  0
SECTION
  2
TABLES
  0
TABLE
  2
LTYPE
 70
     3
  0
LTYPE
  2
CONTINUOUS
 70
    64
  3
Ausgezogene Linie
 72
    65
 73
     0
 40
0.0
  0
LTYPE
  2
DASHED
 70
    64
  3
__ __ __ __ __ __ __ __ __ __ __ __ __ __ __
 72
    65
 73
     2
 40
0.75
 49
0.5
 49
-0.25
  0
LTYPE
  2
DASHDOT
 70
    64
  3
__ . __ . __ . __ . __ . __ . __ . __ . __ . __
 72
    65
 73
     4
 40
1.0
 49
0.5
 49
-0.25
 49
0.0
 49
-0.25
  0
ENDTAB
  0
TABLE
  2
LAYER
 70
     5
  0
LAYER
  2
LC-INFO-1-1-MM-A1-0
 70
    64
 62
     7
  6
CONTINUOUS
  0
LAYER
  2
LC-003-002-----0
 70
    64
 62
     7
  6
CONTINUOUS
  0
LAYER
  2
LC-005-002-RND-0
 70
    64
 62
     7
  6
CONTINUOUS
  0
LAYER
  2
LC-008-003-----0
 70
    64
 62
     7
  6
CONTINUOUS
  0
LAYER
  2
LC-004-005-----0
 70
    64
 62
     7
  6
CONTINUOUS
  0
ENDTAB
  0
TABLE
  2
STYLE
 70
     1
  0
STYLE
  2
TXT8
 70
    64
 40
0.0
 41
1.0
 50
0.0
 71
     0
 42
3.500000
  3
TXT8
  4

  0
ENDTAB
  0
ENDSEC
  0
SECTION
  2
BLOCKS
  0
ENDSEC
  0
SECTION
  2
ENTITIES
  0
LINE
  8
LC-004-005-----0
 62
     2
  6
CONTINUOUS
 10
630.211243
 20
193.947266
 11
630.211243
 21
193.947266
  0
LINE
  8
LC-004-005-----0
 62
     2
  6
CONTINUOUS
 10
630.211243
 20
193.947266
 11
629.010559
 21
191.974762
  0
LINE
  8
LC-004-005-----0
 62
     2
  6
CONTINUOUS
 10
629.010559
 20
191.974762
 11
628.241943
 21
189.599579
  0
LINE
  8
LC-004-005-----0
 62
     2
  6
CONTINUOUS
 10
628.241943
 20
189.599579
 11
628.278870
 21
187.498825
  0
LINE
  8
LC-004-005-----0
 62
     2
  6
CONTINUOUS
 10
628.278870
 20
187.498825
 11
628.755798
 21
185.556580
  0
LINE
  8
LC-004-005-----0
 62
     2
  6
CONTINUOUS
 10
628.755798
 20
185.556580
 11
629.307190
 21
183.656891
  0
LINE
  8
LC-004-005-----0
 62
     2
  6
CONTINUOUS
 10
629.307190
 20
183.656891
 11
629.567505
 21
181.683823
  0
LINE
  8
LC-004-005-----0
 62
     2
  6
CONTINUOUS
 10
629.567505
 20
181.683823
 11
629.171204
 21
179.521408
  0
LINE
  8
LC-004-005-----0
 62
     2
  6
CONTINUOUS
 10
629.171204
 20
179.521408
 11
629.171204
 21
179.521408
  0
LINE
  8
LC-004-005-----0
 62
     2
  6
CONTINUOUS
 10
629.171204
 20
179.521408
 11
628.849915
 21
178.189163
  0
LINE
  8
LC-004-005-----0
 62
     2
  6
CONTINUOUS
 10
628.849915
 20
178.189163
 11
628.849915
 21
178.189163
  0
LINE
  8
LC-004-005-----0
 62
     2
  6
CONTINUOUS
 10
628.849915
 20
178.189163
 11
630.938232
 21
177.704727
  0
LINE
  8
LC-004-005-----0
 62
     2
  6
CONTINUOUS
 10
630.938232
 20
177.704727
 11
632.146606
 21
176.873688
  0
LINE
  8
LC-004-005-----0
 62
     2
  6
CONTINUOUS
 10
632.146606
 20
176.873688
 11
631.820007
 21
175.176468
  0
LINE
  8
LC-004-005-----0
 62
     2
  6
CONTINUOUS
 10
631.820007
 20
175.176468
 11
630.707031
 21
172.878021
  0
LINE
  8
LC-004-005-----0
 62
     2
  6
CONTINUOUS
 10
630.707031
 20
172.878021
 11
629.556152
 21
170.243286
  0
LINE
  8
LC-004-005-----0
 62
     2
  6
CONTINUOUS
 10
629.556152
 20
170.243286
 11
629.116028
 21
167.537201
  0
LINE
  8
LC-004-005-----0
 62
     2
  6
CONTINUOUS
 10
629.116028
 20
167.537201
 11
630.135071
 21
165.024689
  0
LINE
  8
LC-004-005-----0
 62
     2
  6
CONTINUOUS
 10
630.135071
 20
165.024689
 11
630.135071
 21
165.024689
  0
LINE
  8
LC-004-005-----0
 62
     2
  6
CONTINUOUS
 10
630.135071
 20
165.024689
 11
630.693176
 21
164.447266
  0
LINE
  8
LC-004-005-----0
 62
     2
  6
CONTINUOUS
 10
604.027588
 20
217.947266
 11
606.027588
 21
219.947266
  0
LINE
  8
LC-004-005-----0
 62
     2
  6
CONTINUOUS
 10
597.784912
 20
215.947266
 11
601.784912
 21
219.947266
  0
LINE
  8
LC-004-005-----0
 62
     2
  6
CONTINUOUS
 10
606.240784
 20
198.947266
 11
607.061584
 21
199.768082
  0
LINE
  8
LC-004-005-----0
 62
     2
  6
CONTINUOUS
 10
601.208618
 20
198.157745
 11
607.061584
 21
204.010727
  0
LINE
  8
LC-004-005-----0
 62
     2
  6
CONTINUOUS
 10
597.162964
 20
198.354721
 11
605.755493
 21
206.947266
  0
LINE
  8
LC-004-005-----0
 62
     2
  6
CONTINUOUS
 10
592.512878
 20
197.947266
 11
601.512878
 21
206.947266
  0
LINE
  8
LC-004-005-----0
 62
     2
  6
CONTINUOUS
 10
588.270203
 20
197.947266
 11
595.270203
 21
204.947266
  0
LINE
  8
LC-004-005-----0
 62
     2
  6
CONTINUOUS
 10
597.061584
 20
206.738647
 11
599.270203
 21
208.947266
  0
LINE
  8
LC-004-005-----0
 62
     2
  6
CONTINUOUS
 10
584.027588
 20
197.947266
 11
591.027588
 21
204.947266
  0
LINE
  8
LC-004-005-----0
 62
     2
  6
CONTINUOUS
 10
579.784912
 20
197.947266
 11
586.784912
 21
204.947266
  0
LINE
  8
LC-004-005-----0
 62
     2
  6
CONTINUOUS
 10
575.542297
 20
197.947266
 11
582.542297
 21
204.947266
  0
LINE
  8
LC-004-005-----0
 62
     2
  6
CONTINUOUS
 10
571.299622
 20
197.947266
 11
578.299622
 21
204.947266
  0
LINE
  8
LC-004-005-----0
 62
     2
  6
CONTINUOUS
 10
567.057007
 20
197.947266
 11
574.057007
 21
204.947266
  0
LINE
  8
LC-004-005-----0
 62
     2
  6
CONTINUOUS
 10
562.814392
 20
197.947266
 11
569.814392
 21
204.947266
  0
LINE
  8
LC-004-005-----0
 62
     2
  6
CONTINUOUS
 10
558.571716
 20
197.947266
 11
565.571716
 21
204.947266
  0
LINE
  8
LC-004-005-----0
 62
     2
  6
CONTINUOUS
 10
554.829285
 20
198.447479
 11
561.329102
 21
204.947266
  0
LINE
  8
LC-004-005-----0
 62
     2
  6
CONTINUOUS
 10
550.086426
 20
197.947266
 11
557.086426
 21
204.947266
  0
LINE
  8
LC-004-005-----0
 62
     2
  6
CONTINUOUS
 10
545.843811
 20
197.947266
 11
552.843811
 21
204.947266
  0
LINE
  8
LC-004-005-----0
 62
     2
  6
CONTINUOUS
 10
541.601135
 20
197.947266
 11
548.601135
 21
204.947266
  0
LINE
  8
LC-004-005-----0
 62
     2
  6
CONTINUOUS
 10
537.358521
 20
197.947266
 11
544.358521
 21
204.947266
  0
LINE
  8
LC-004-005-----0
 62
     2
  6
CONTINUOUS
 10
533.115906
 20
197.947266
 11
540.115906
 21
204.947266
  0
LINE
  8
LC-004-005-----0
 62
     2
  6
CONTINUOUS
 10
528.873230
 20
197.947266
 11
535.873230
 21
204.947266
  0
LINE
  8
LC-004-005-----0
 62
     2
  6
CONTINUOUS
 10
524.630615
 20
197.947266
 11
531.630615
 21
204.947266
  0
LINE
  8
LC-004-005-----0
 62
     2
  6
CONTINUOUS
 10
520.387939
 20
197.947266
 11
527.387939
 21
204.947266
  0
LINE
  8
LC-004-005-----0
 62
     2
  6
CONTINUOUS
 10
518.061584
 20
199.863541
 11
523.145325
 21
204.947266
  0
LINE
  8
LC-004-005-----0
 62
     2
  6
CONTINUOUS
 10
518.061584
 20
204.106171
 11
518.902649
 21
204.947266
  0
LINE
  8
LC-004-005-----0
 62
     2
  6
CONTINUOUS
 10
511.902679
 20
197.947266
 11
514.061584
 21
200.106171
  0
LINE
  8
LC-004-005-----0
 62
     2
  6
CONTINUOUS
 10
507.660034
 20
197.947266
 11
514.061584
 21
204.348816
  0
LINE
  8
LC-004-005-----0
 62
     2
  6
CONTINUOUS
 10
503.417389
 20
197.947266
 11
510.417389
 21
204.947266
  0
LINE
  8
LC-004-005-----0
 62
     2
  6
CONTINUOUS
 10
499.174744
 20
197.947266
 11
506.174744
 21
204.947266
  0
LINE
  8
LC-004-005-----0
 62
     2
  6
CONTINUOUS
 10
494.932098
 20
197.947266
 11
501.932098
 21
204.947266
  0
LINE
  8
LC-004-005-----0
 62
     2
  6
CONTINUOUS
 10
490.689484
 20
197.947266
 11
497.689484
 21
204.947266
  0
LINE
  8
LC-004-005-----0
 62
     2
  6
CONTINUOUS
 10
486.446838
 20
197.947266
 11
493.446838
 21
204.947266
  0
LINE
  8
LC-004-005-----0
 62
     2
  6
CONTINUOUS
 10
482.204193
 20
197.947266
 11
489.204193
 21
204.947266
  0
LINE
  8
LC-004-005-----0
 62
     2
  6
CONTINUOUS
 10
478.935883
 20
198.921600
 11
484.961548
 21
204.947266
  0
LINE
  8
LC-004-005-----0
 62
     2
  6
CONTINUOUS
 10
473.718903
 20
197.947266
 11
480.718903
 21
204.947266
  0
LINE
  8
LC-004-005-----0
 62
     2
  6
CONTINUOUS
 10
469.476257
 20
197.947266
 11
476.476257
 21
204.947266
  0
LINE
  8
LC-004-005-----0
 62
     2
  6
CONTINUOUS
 10
465.233643
 20
197.947266
 11
472.233643
 21
204.947266
  0
LINE
  8
LC-004-005-----0
 62
     2
  6
CONTINUOUS
 10
460.990997
 20
197.947266
 11
467.990997
 21
204.947266
  0
LINE
  8
LC-004-005-----0
 62
     2
  6
CONTINUOUS
 10
456.748352
 20
197.947266
 11
463.748352
 21
204.947266
  0
LINE
  8
LC-004-005-----0
 62
     2
  6
CONTINUOUS
 10
452.505707
 20
197.947266
 11
459.505707
 21
204.947266
  0
LINE
  8
LC-004-005-----0
 62
     2
  6
CONTINUOUS
 10
448.263062
 20
197.947266
 11
455.263062
 21
204.947266
  0
LINE
  8
LC-004-005-----0
 62
     2
  6
CONTINUOUS
 10
444.020416
 20
197.947266
 11
451.020416
 21
204.947266
  0
LINE
  8
LC-004-005-----0
 62
     2
  6
CONTINUOUS
 10
439.777771
 20
197.947266
 11
446.777771
 21
204.947266
  0
LINE
  8
LC-004-005-----0
 62
     2
  6
CONTINUOUS
 10
435.988953
 20
198.401077
 11
442.535156
 21
204.947266
  0
LINE
  8
LC-004-005-----0
 62
     2
  6
CONTINUOUS
 10
432.279572
 20
198.934326
 11
438.292511
 21
204.947266
  0
LINE
  8
LC-004-005-----0
 62
     2
  6
CONTINUOUS
 10
427.561584
 20
198.458984
 11
434.049866
 21
204.947266
  0
LINE
  8
LC-004-005-----0
 62
     2
  6
CONTINUOUS
 10
425.061584
 20
200.201630
 11
429.807220
 21
204.947266
  0
LINE
  8
LC-004-005-----0
 62
     2
  6
CONTINUOUS
 10
398.795959
 20
193.947266
 11
398.795959
 21
193.947266
  0
LINE
  8
LC-004-005-----0
 62
     2
  6
CONTINUOUS
 10
398.795959
 20
193.947266
 11
399.438507
 21
191.490311
  0
LINE
  8
LC-004-005-----0
 62
     2
  6
CONTINUOUS
 10
399.438507
 20
191.490311
 11
399.825714
 21
188.746323
  0
LINE
  8
LC-004-005-----0
 62
     2
  6
CONTINUOUS
 10
399.825714
 20
188.746323
 11
399.788391
 21
186.401459
  0
LINE
  8
LC-004-005-----0
 62
     2
  6
CONTINUOUS
 10
399.788391
 20
186.401459
 11
399.480621
 21
184.332672
  0
LINE
  8
LC-004-005-----0
 62
     2
  6
CONTINUOUS
 10
399.480621
 20
184.332672
 11
399.056396
 21
182.416946
  0
LINE
  8
LC-004-005-----0
 62
     2
  6
CONTINUOUS
 10
399.056396
 20
182.416946
 11
398.669739
 21
180.531235
  0
LINE
  8
LC-004-005-----0
 62
     2
  6
CONTINUOUS
 10
398.669739
 20
180.531235
 11
398.474670
 21
178.552505
  0
LINE
  8
LC-004-005-----0
 62
     2
  6
CONTINUOUS
 10
398.474670
 20
178.552505
 11
398.474670
 21
178.552505
  0
LINE
  8
LC-004-005-----0
 62
     2
  6
CONTINUOUS
 10
398.474670
 20
178.552505
 11
398.474670
 21
177.349152
  0
LINE
  8
LC-004-005-----0
 62
     2
  6
CONTINUOUS
 10
398.474670
 20
177.349152
 11
398.391174
 21
174.704865
  0
LINE
  8
LC-004-005-----0
 62
     2
  6
CONTINUOUS
 10
398.391174
 20
174.704865
 11
398.182892
 21
171.760590
  0
LINE
  8
LC-004-005-----0
 62
     2
  6
CONTINUOUS
 10
398.182892
 20
171.760590
 11
397.912231
 21
168.864517
  0
LINE
  8
LC-004-005-----0
 62
     2
  6
CONTINUOUS
 10
397.912231
 20
168.864517
 11
397.641602
 21
166.364822
  0
LINE
  8
LC-004-005-----0
 62
     2
  6
CONTINUOUS
 10
397.641602
 20
166.364822
 11
397.433441
 21
164.609680
  0
LINE
  8
LC-004-005-----0
 62
     2
  6
CONTINUOUS
 10
397.433441
 20
164.609680
 11
397.350189
 21
163.947266
  0
LINE
  8
LC-005-002-RND-0
 62
     2
  6
DASHDOT
 10
719.923035
 20
195.172073
 11
728.252808
 21
203.501862
  0
LINE
  8
LC-003-002-----0
 62
     1
  6
CONTINUOUS
 10
514.061584
 20
204.947266
 11
514.061584
 21
197.947266
  0
LINE
  8
LC-003-002-----0
 62
     1
  6
CONTINUOUS
 10
607.061584
 20
206.947266
 11
600.261597
 21
206.947266
  0
LINE
  8
LC-003-002-----0
 62
     1
  6
CONTINUOUS
 10
600.261597
 20
208.947266
 11
597.061584
 21
208.947266
  0
LINE
  8
LC-003-002-----0
 62
     1
  6
CONTINUOUS
 10
600.261597
 20
206.947266
 11
600.261597
 21
217.947266
  0
LINE
  8
LC-005-002-RND-0
 62
     2
  6
DASHDOT
 10
632.062744
 20
178.947266
 11
396.546967
 21
178.947266
  0
LINE
  8
LC-003-002-----0
 62
     1
  6
CONTINUOUS
 10
607.061584
 20
138.947266
 11
607.061584
 21
178.947266
  0
LINE
  8
LC-003-002-----0
 62
     1
  6
CONTINUOUS
 10
596.061584
 20
204.947266
 11
426.561584
 21
204.947266
  0
LINE
  8
LC-003-002-----0
 62
     1
  6
CONTINUOUS
 10
596.061584
 20
152.947266
 11
426.561584
 21
152.947266
  0
LINE
  8
LC-003-002-----0
 62
     1
  6
CONTINUOUS
 10
597.061584
 20
218.947266
 11
597.061584
 21
204.647263
  0
LINE
  8
LC-003-002-----0
 62
     1
  6
CONTINUOUS
 10
606.061584
 20
219.947266
 11
598.061584
 21
219.947266
  0
LINE
  8
LC-003-002-----0
 62
     1
  6
CONTINUOUS
 10
598.061584
 20
137.947266
 11
606.061584
 21
137.947266
  0
LINE
  8
LC-003-002-----0
 62
     1
  6
CONTINUOUS
 10
425.061584
 20
203.447266
 11
425.061584
 21
193.947266
  0
LINE
  8
LC-005-002-RND-0
 62
     2
  6
DASHDOT
 10
516.061584
 20
212.495544
 11
516.061584
 21
196.603027
  0
LINE
  8
LC-003-002-----0
 62
     1
  6
CONTINUOUS
 10
513.161560
 20
206.347260
 11
513.161560
 21
204.947266
  0
LINE
  8
LC-003-002-----0
 62
     1
  6
CONTINUOUS
 10
518.961609
 20
206.347260
 11
518.961609
 21
204.947266
  0
LINE
  8
LC-003-002-----0
 62
     1
  6
CONTINUOUS
 10
514.861572
 20
206.347260
 11
514.861572
 21
204.947266
  0
LINE
  8
LC-003-002-----0
 62
     1
  6
CONTINUOUS
 10
518.961609
 20
206.347260
 11
513.161560
 21
206.347260
  0
LINE
  8
LC-003-002-----0
 62
     1
  6
CONTINUOUS
 10
517.261597
 20
206.347260
 11
517.261597
 21
204.947266
  0
LINE
  8
LC-003-002-----0
 62
     1
  6
CONTINUOUS
 10
514.061584
 20
207.347260
 11
514.061584
 21
206.347260
  0
LINE
  8
LC-003-002-----0
 62
     1
  6
CONTINUOUS
 10
518.061584
 20
207.347260
 11
518.061584
 21
206.347260
  0
LINE
  8
LC-003-002-----0
 62
     1
  6
CONTINUOUS
 10
518.561584
 20
207.347260
 11
513.561584
 21
207.347260
  0
LINE
  8
LC-003-002-----0
 62
     1
  6
CONTINUOUS
 10
513.561584
 20
208.347260
 11
513.561584
 21
207.347260
  0
LINE
  8
LC-003-002-----0
 62
     1
  6
CONTINUOUS
 10
518.561584
 20
208.347260
 11
518.561584
 21
207.347260
  0
LINE
  8
LC-003-002-----0
 62
     1
  6
CONTINUOUS
 10
518.561584
 20
208.347260
 11
513.561584
 21
208.347260
  0
LINE
  8
LC-003-002-----0
 62
     1
  6
CONTINUOUS
 10
517.561584
 20
210.347260
 11
514.561584
 21
210.347260
  0
ARC
  8
LC-003-002-----0
 62
     1
  6
CONTINUOUS
 10
516.061584
 20
208.347260
 40
2.338464
 50
58.788702
 51
121.211296
  0
LINE
  8
LC-003-002-----0
 62
     1
  6
CONTINUOUS
 10
517.561584
 20
210.347260
 11
518.561584
 21
208.347260
  0
LINE
  8
LC-003-002-----0
 62
     1
  6
CONTINUOUS
 10
514.561584
 20
210.347260
 11
513.561584
 21
208.347260
  0
LINE
  8
LC-005-002-RND-0
 62
     2
  6
DASHDOT
 10
660.794983
 20
178.947266
 11
747.454590
 21
178.947266
  0
LINE
  8
LC-005-002-RND-0
 62
     2
  6
DASHDOT
 10
703.698242
 20
135.617554
 11
703.698242
 21
221.768799
  0
ARC
  8
LC-003-002-----0
 62
     1
  6
CONTINUOUS
 10
426.561584
 20
203.447266
 40
1.500000
 50
90.000003
 51
180.000009
  0
LINE
  8
LC-003-002-----0
 62
     1
  6
CONTINUOUS
 10
518.061584
 20
204.947266
 11
518.061584
 21
197.947266
  0
LINE
  8
LC-003-002-----0
 62
     1
  6
CONTINUOUS
 10
397.350189
 20
163.947266
 11
425.061584
 21
163.947266
  0
LINE
  8
LC-005-002-RND-0
 62
     2
  6
DASHDOT
 10
608.887817
 20
212.447266
 11
595.713745
 21
212.447266
  0
LINE
  8
LC-005-002-RND-0
 62
     2
  6
DASHDOT
 10
608.887817
 20
145.447266
 11
595.713745
 21
145.447266
  0
LINE
  8
LC-003-002-----0
 62
     1
  6
CONTINUOUS
 10
600.261597
 20
215.947266
 11
597.061584
 21
215.947266
  0
LINE
  8
LC-003-002-----0
 62
     1
  6
CONTINUOUS
 10
607.061584
 20
217.947266
 11
600.261597
 21
217.947266
  0
CIRCLE
  8
LC-003-002-----0
 62
     1
  6
CONTINUOUS
 10
703.698242
 20
178.947266
 40
14.750000
  0
CIRCLE
  8
LC-003-002-----0
 62
     1
  6
CONTINUOUS
 10
703.698242
 20
178.947266
 40
26.000000
  0
CIRCLE
  8
LC-005-002-RND-0
 62
     2
  6
DASHDOT
 10
703.698242
 20
178.947266
 40
33.500000
  0
CIRCLE
  8
LC-003-002-----0
 62
     1
  6
CONTINUOUS
 10
703.698242
 20
178.947266
 40
40.000000
  0
CIRCLE
  8
LC-003-002-----0
 62
     1
  6
CONTINUOUS
 10
703.698242
 20
178.947266
 40
41.000000
  0
LINE
  8
LC-003-002-----0
 62
     1
  6
CONTINUOUS
 10
551.774597
 20
197.947266
 11
480.348572
 21
197.947266
  0
CIRCLE
  8
LC-008-003-----0
 62
     2
  6
DASHED
 10
703.698242
 20
212.447266
 40
5.500000
  0
LINE
  8
LC-003-002-----0
 62
     1
  6
CONTINUOUS
 10
607.061584
 20
193.947266
 11
630.211243
 21
193.947266
  0
LINE
  8
LC-008-003-----0
 62
     2
  6
DASHED
 10
607.061584
 20
139.947266
 11
600.261597
 21
139.947266
  0
LINE
  8
LC-008-003-----0
 62
     2
  6
DASHED
 10
600.261597
 20
141.947266
 11
597.061584
 21
141.947266
  0
LINE
  8
LC-003-002-----0
 62
     1
  6
CONTINUOUS
 10
596.061584
 20
204.947266
 11
596.061584
 21
204.647263
  0
LINE
  8
LC-003-002-----0
 62
     1
  6
CONTINUOUS
 10
597.061584
 20
204.647263
 11
596.061584
 21
204.647263
  0
LINE
  8
LC-003-002-----0
 62
     1
  6
CONTINUOUS
 10
597.061584
 20
153.247269
 11
596.061584
 21
153.247269
  0
ARC
  8
LC-003-002-----0
 62
     1
  6
CONTINUOUS
 10
426.561584
 20
154.447266
 40
1.500000
 50
180.000009
 51
269.999997
  0
LINE
  8
LC-003-002-----0
 62
     1
  6
CONTINUOUS
 10
597.061584
 20
218.947266
 11
598.061584
 21
219.947266
  0
LINE
  8
LC-003-002-----0
 62
     1
  6
CONTINUOUS
 10
597.061584
 20
138.947266
 11
598.061584
 21
137.947266
  0
LINE
  8
LC-003-002-----0
 62
     1
  6
CONTINUOUS
 10
598.061584
 20
178.947266
 11
598.061584
 21
137.947266
  0
LINE
  8
LC-003-002-----0
 62
     1
  6
CONTINUOUS
 10
607.061584
 20
218.947266
 11
606.061584
 21
219.947266
  0
LINE
  8
LC-003-002-----0
 62
     1
  6
CONTINUOUS
 10
606.061584
 20
137.947266
 11
607.061584
 21
138.947266
  0
LINE
  8
LC-003-002-----0
 62
     1
  6
CONTINUOUS
 10
606.061584
 20
178.947266
 11
606.061584
 21
137.947266
  0
LINE
  8
LC-003-002-----0
 62
     1
  6
CONTINUOUS
 10
720.315247
 20
199.099808
 11
723.850769
 21
195.564270
  0
LINE
  8
LC-003-002-----0
 62
     1
  6
CONTINUOUS
 10
723.072937
 20
198.321991
 11
722.083008
 21
197.332047
  0
LINE
  8
LC-003-002-----0
 62
     1
  6
CONTINUOUS
 10
724.840698
 20
196.554230
 11
721.305176
 21
200.089752
  0
LINE
  8
LC-003-002-----0
 62
     1
  6
CONTINUOUS
 10
722.365845
 20
200.443314
 11
721.658752
 21
199.736206
  0
LINE
  8
LC-003-002-----0
 62
     1
  6
CONTINUOUS
 10
725.194275
 20
197.614883
 11
724.487183
 21
196.907776
  0
LINE
  8
LC-003-002-----0
 62
     1
  6
CONTINUOUS
 10
725.547791
 20
197.261337
 11
722.012268
 21
200.796860
  0
LINE
  8
LC-003-002-----0
 62
     1
  6
CONTINUOUS
 10
722.719360
 20
201.503967
 11
722.012268
 21
200.796860
  0
LINE
  8
LC-003-002-----0
 62
     1
  6
CONTINUOUS
 10
726.254944
 20
197.968430
 11
725.547791
 21
197.261337
  0
LINE
  8
LC-003-002-----0
 62
     1
  6
CONTINUOUS
 10
726.254944
 20
197.968430
 11
722.719360
 21
201.503967
  0
LINE
  8
LC-003-002-----0
 62
     1
  6
CONTINUOUS
 10
726.962036
 20
200.089752
 11
724.840698
 21
202.211075
  0
ARC
  8
LC-003-002-----0
 62
     1
  6
CONTINUOUS
 10
724.487183
 20
199.736206
 40
2.338464
 50
13.788703
 51
76.211299
  0
LINE
  8
LC-003-002-----0
 62
     1
  6
CONTINUOUS
 10
726.962036
 20
200.089752
 11
726.254944
 21
197.968430
  0
LINE
  8
LC-003-002-----0
 62
     1
  6
CONTINUOUS
 10
724.840698
 20
202.211075
 11
722.719360
 21
201.503967
  0
LINE
  8
LC-003-002-----0
 62
     1
  6
CONTINUOUS
 10
723.850769
 20
195.564270
 11
724.840698
 21
196.554230
  0
LINE
  8
LC-003-002-----0
 62
     1
  6
CONTINUOUS
 10
720.315247
 20
199.099808
 11
721.305176
 21
200.089752
  0
LINE
  8
LC-008-003-----0
 62
     2
  6
DASHED
 10
425.061584
 20
163.947266
 11
607.061584
 21
163.947266
  0
LINE
  8
LC-003-002-----0
 62
     1
  6
CONTINUOUS
 10
607.061584
 20
163.947266
 11
630.693176
 21
163.947266
  0
LINE
  8
LC-008-003-----0
 62
     2
  6
DASHED
 10
600.261597
 20
139.947266
 11
600.261597
 21
150.947266
  0
LINE
  8
LC-008-003-----0
 62
     2
  6
DASHED
 10
600.261597
 20
148.947266
 11
597.061584
 21
148.947266
  0
LINE
  8
LC-008-003-----0
 62
     2
  6
DASHED
 10
607.061584
 20
150.947266
 11
600.261597
 21
150.947266
  0
CIRCLE
  8
LC-003-002-----0
 62
     1
  6
CONTINUOUS
 10
703.698242
 20
212.447266
 40
3.500000
  0
CIRCLE
  8
LC-003-002-----0
 62
     1
  6
CONTINUOUS
 10
737.198242
 20
178.947266
 40
3.500000
  0
CIRCLE
  8
LC-008-003-----0
 62
     2
  6
DASHED
 10
703.698242
 20
145.447266
 40
5.500000
  0
CIRCLE
  8
LC-003-002-----0
 62
     1
  6
CONTINUOUS
 10
703.698242
 20
145.447266
 40
3.500000
  0
CIRCLE
  8
LC-008-003-----0
 62
     2
  6
DASHED
 10
737.198242
 20
178.947266
 40
5.500000
  0
CIRCLE
  8
LC-008-003-----0
 62
     2
  6
DASHED
 10
670.198242
 20
178.947266
 40
5.500000
  0
CIRCLE
  8
LC-003-002-----0
 62
     1
  6
CONTINUOUS
 10
670.198242
 20
178.947266
 40
3.500000
  0
LINE
  8
LC-003-002-----0
 62
     1
  6
CONTINUOUS
 10
425.061584
 20
178.947266
 11
425.061584
 21
154.447266
  0
LINE
  8
LC-003-002-----0
 62
     1
  6
CONTINUOUS
 10
596.061584
 20
178.947266
 11
596.061584
 21
152.947266
  0
LINE
  8
LC-003-002-----0
 62
     1
  6
CONTINUOUS
 10
597.061584
 20
178.947266
 11
597.061584
 21
138.947266
  0
LINE
  8
LC-003-002-----0
 62
     1
  6
CONTINUOUS
 10
607.061584
 20
193.947266
 11
607.061584
 21
218.947266
  0
LINE
  8
LC-003-002-----0
 62
     1
  6
CONTINUOUS
 10
607.061584
 20
193.947266
 11
425.061584
 21
193.947266
  0
LINE
  8
LC-003-002-----0
 62
     1
  6
CONTINUOUS
 10
604.561584
 20
197.947266
 11
601.348572
 21
197.947266
  0
LINE
  8
LC-003-002-----0
 62
     1
  6
CONTINUOUS
 10
546.061584
 20
197.947266
 11
546.061584
 21
193.947266
  0
LINE
  8
LC-003-002-----0
 62
     1
  6
CONTINUOUS
 10
607.061584
 20
198.947266
 11
605.811584
 21
198.947266
  0
ARC
  8
LC-003-002-----0
 62
     1
  6
CONTINUOUS
 10
599.616516
 20
196.947266
 40
2.000000
 50
228.590384
 51
149.999997
  0
CIRCLE
  8
LC-003-002-----0
 62
     1
  6
CONTINUOUS
 10
576.561584
 20
195.947266
 40
2.000000
  0
LINE
  8
LC-003-002-----0
 62
     1
  6
CONTINUOUS
 10
427.561584
 20
197.947266
 11
430.774597
 21
197.947266
  0
CIRCLE
  8
LC-003-002-----0
 62
     1
  6
CONTINUOUS
 10
580.561584
 20
195.947266
 40
2.000000
  0
CIRCLE
  8
LC-003-002-----0
 62
     1
  6
CONTINUOUS
 10
584.561584
 20
195.947266
 40
2.000000
  0
CIRCLE
  8
LC-003-002-----0
 62
     1
  6
CONTINUOUS
 10
588.561584
 20
195.947266
 40
2.000000
  0
CIRCLE
  8
LC-003-002-----0
 62
     1
  6
CONTINUOUS
 10
592.561584
 20
195.947266
 40
2.000000
  0
CIRCLE
  8
LC-003-002-----0
 62
     1
  6
CONTINUOUS
 10
596.561584
 20
196.447266
 40
2.000000
  0
LINE
  8
LC-003-002-----0
 62
     1
  6
CONTINUOUS
 10
486.061584
 20
197.947266
 11
486.061584
 21
193.947266
  0
LINE
  8
LC-003-002-----0
 62
     1
  6
CONTINUOUS
 10
557.884460
 20
197.947266
 11
595.238708
 21
197.947266
  0
LINE
  8
LC-003-002-----0
 62
     1
  6
CONTINUOUS
 10
601.348572
 20
197.947266
 11
604.561584
 21
197.947266
  0
CIRCLE
  8
LC-003-002-----0
 62
     1
  6
CONTINUOUS
 10
572.561584
 20
195.947266
 40
2.000000
  0
CIRCLE
  8
LC-003-002-----0
 62
     1
  6
CONTINUOUS
 10
568.561584
 20
195.947266
 40
2.000000
  0
CIRCLE
  8
LC-003-002-----0
 62
     1
  6
CONTINUOUS
 10
564.561584
 20
195.947266
 40
2.000000
  0
CIRCLE
  8
LC-003-002-----0
 62
     1
  6
CONTINUOUS
 10
560.561584
 20
195.947266
 40
2.000000
  0
CIRCLE
  8
LC-003-002-----0
 62
     1
  6
CONTINUOUS
 10
556.561584
 20
196.447266
 40
2.000000
  0
ARC
  8
LC-003-002-----0
 62
     1
  6
CONTINUOUS
 10
553.506653
 20
196.947266
 40
2.000000
 50
30.000001
 51
311.409621
  0
LINE
  8
LC-003-002-----0
 62
     1
  6
CONTINUOUS
 10
605.811584
 20
199.947266
 11
605.061584
 21
199.947266
  0
LINE
  8
LC-003-002-----0
 62
     1
  6
CONTINUOUS
 10
605.811584
 20
199.947266
 11
605.811584
 21
193.947266
  0
LINE
  8
LC-003-002-----0
 62
     1
  6
CONTINUOUS
 10
605.061584
 20
199.947266
 11
605.061584
 21
193.947266
  0
LINE
  8
LC-003-002-----0
 62
     1
  6
CONTINUOUS
 10
604.561584
 20
198.947266
 11
604.561584
 21
193.947266
  0
LINE
  8
LC-003-002-----0
 62
     1
  6
CONTINUOUS
 10
605.061584
 20
198.947266
 11
604.561584
 21
198.947266
  0
LINE
  8
LC-003-002-----0
 62
     1
  6
CONTINUOUS
 10
425.061584
 20
198.947266
 11
426.311584
 21
198.947266
  0
ARC
  8
LC-003-002-----0
 62
     1
  6
CONTINUOUS
 10
432.506653
 20
196.947266
 40
2.000000
 50
30.000001
 51
311.409621
  0
CIRCLE
  8
LC-003-002-----0
 62
     1
  6
CONTINUOUS
 10
455.561584
 20
195.947266
 40
2.000000
  0
CIRCLE
  8
LC-003-002-----0
 62
     1
  6
CONTINUOUS
 10
451.561584
 20
195.947266
 40
2.000000
  0
CIRCLE
  8
LC-003-002-----0
 62
     1
  6
CONTINUOUS
 10
447.561584
 20
195.947266
 40
2.000000
  0
CIRCLE
  8
LC-003-002-----0
 62
     1
  6
CONTINUOUS
 10
443.561584
 20
195.947266
 40
2.000000
  0
CIRCLE
  8
LC-003-002-----0
 62
     1
  6
CONTINUOUS
 10
439.561584
 20
195.947266
 40
2.000000
  0
CIRCLE
  8
LC-003-002-----0
 62
     1
  6
CONTINUOUS
 10
435.561584
 20
196.447266
 40
2.000000
  0
LINE
  8
LC-003-002-----0
 62
     1
  6
CONTINUOUS
 10
474.238708
 20
197.947266
 11
436.884460
 21
197.947266
  0
LINE
  8
LC-003-002-----0
 62
     1
  6
CONTINUOUS
 10
430.774597
 20
197.947266
 11
427.561584
 21
197.947266
  0
CIRCLE
  8
LC-003-002-----0
 62
     1
  6
CONTINUOUS
 10
459.561584
 20
195.947266
 40
2.000000
  0
CIRCLE
  8
LC-003-002-----0
 62
     1
  6
CONTINUOUS
 10
463.561584
 20
195.947266
 40
2.000000
  0
CIRCLE
  8
LC-003-002-----0
 62
     1
  6
CONTINUOUS
 10
467.561584
 20
195.947266
 40
2.000000
  0
CIRCLE
  8
LC-003-002-----0
 62
     1
  6
CONTINUOUS
 10
471.561584
 20
195.947266
 40
2.000000
  0
CIRCLE
  8
LC-003-002-----0
 62
     1
  6
CONTINUOUS
 10
475.561584
 20
196.447266
 40
2.000000
  0
ARC
  8
LC-003-002-----0
 62
     1
  6
CONTINUOUS
 10
478.616516
 20
196.947266
 40
2.000000
 50
228.590384
 51
149.999997
  0
LINE
  8
LC-003-002-----0
 62
     1
  6
CONTINUOUS
 10
426.311584
 20
199.947266
 11
427.061584
 21
199.947266
  0
LINE
  8
LC-003-002-----0
 62
     1
  6
CONTINUOUS
 10
426.311584
 20
199.947266
 11
426.311584
 21
193.947266
  0
LINE
  8
LC-003-002-----0
 62
     1
  6
CONTINUOUS
 10
427.061584
 20
199.947266
 11
427.061584
 21
193.947266
  0
LINE
  8
LC-003-002-----0
 62
     1
  6
CONTINUOUS
 10
427.561584
 20
198.947266
 11
427.561584
 21
193.947266
  0
LINE
  8
LC-003-002-----0
 62
     1
  6
CONTINUOUS
 10
427.061584
 20
198.947266
 11
427.561584
 21
198.947266
  0
LINE
  8
LC-003-002-----0
 62
     1
  6
CONTINUOUS
 10
425.061584
 20
193.947266
 11
398.795959
 21
193.947266
  0
ENDSEC
  0
EOF
