  0
SECTION
  2
HEADER
  9
$LIMMIN
 10
224.196091
 20
301.982422
  9
$LIMMAX
 10
523.583374
 20
388.412079
  9
$EXTMIN
 10
224.196091
 20
301.982422
  9
$EXTMAX
 10
523.583374
 20
388.412079
  0
ENDSEC
  0
SECTION
  2
TABLES
  0
TABLE
  2
LTYPE
 70
     3
  0
LTYPE
  2
CONTINUOUS
 70
    64
  3
Ausgezogene Linie
 72
    65
 73
     0
 40
0.0
  0
LTYPE
  2
DASHED
 70
    64
  3
__ __ __ __ __ __ __ __ __ __ __ __ __ __ __
 72
    65
 73
     2
 40
0.75
 49
0.5
 49
-0.25
  0
LTYPE
  2
DASHDOT
 70
    64
  3
__ . __ . __ . __ . __ . __ . __ . __ . __ . __
 72
    65
 73
     4
 40
1.0
 49
0.5
 49
-0.25
 49
0.0
 49
-0.25
  0
ENDTAB
  0
TABLE
  2
LAYER
 70
     4
  0
LAYER
  2
LC-003-002-----0
 70
    64
 62
     7
  6
CONTINUOUS
  0
LAYER
  2
LC-004-006-----0
 70
    64
 62
     7
  6
CONTINUOUS
  0
LAYER
  2
LC-006-012-----0
 70
    64
 62
     7
  6
CONTINUOUS
  0
LAYER
  2
LC-005-002-RND-0
 70
    64
 62
     7
  6
CONTINUOUS
  0
ENDTAB
  0
TABLE
  2
STYLE
 70
     1
  0
STYLE
  2
TXT8
 70
    64
 40
0.0
 41
1.0
 50
0.0
 71
     0
 42
3.500000
  3
TXT8
  4

  0
ENDTAB
  0
ENDSEC
  0
SECTION
  2
BLOCKS
  0
ENDSEC
  0
SECTION
  2
ENTITIES
  0
LINE
  8
LC-004-006-----0
 62
     2
  6
DASHDOT
 10
224.196091
 20
345.836395
 11
398.604492
 21
345.836395
  0
LINE
  8
LC-003-002-----0
 62
     1
  6
CONTINUOUS
 10
258.044037
 20
369.336395
 11
369.044037
 21
369.336395
  0
LINE
  8
LC-003-002-----0
 62
     1
  6
CONTINUOUS
 10
258.044037
 20
322.336395
 11
369.044037
 21
322.336395
  0
LINE
  8
LC-003-002-----0
 62
     1
  6
CONTINUOUS
 10
256.544037
 20
383.836395
 11
248.044037
 21
383.836395
  0
LINE
  8
LC-003-002-----0
 62
     1
  6
CONTINUOUS
 10
248.044037
 20
307.836395
 11
256.544037
 21
307.836395
  0
LINE
  8
LC-003-002-----0
 62
     1
  6
CONTINUOUS
 10
247.294037
 20
383.086395
 11
247.294037
 21
308.586395
  0
LINE
  8
LC-003-002-----0
 62
     1
  6
CONTINUOUS
 10
257.294037
 20
308.586395
 11
257.294037
 21
383.086395
  0
LINE
  8
LC-003-002-----0
 62
     1
  6
CONTINUOUS
 10
370.294037
 20
368.086395
 11
370.294037
 21
323.586395
  0
LINE
  8
LC-003-002-----0
 62
     1
  6
CONTINUOUS
 10
230.070648
 20
360.836395
 11
247.294037
 21
360.836395
  0
LINE
  8
LC-003-002-----0
 62
     1
  6
CONTINUOUS
 10
228.767197
 20
330.836395
 11
247.294037
 21
330.836395
  0
LINE
  8
LC-005-002-RND-0
 62
     2
  6
CONTINUOUS
 10
228.767197
 20
330.836395
 11
227.736374
 21
339.760925
  0
LINE
  8
LC-005-002-RND-0
 62
     2
  6
CONTINUOUS
 10
227.736374
 20
339.760925
 11
230.720032
 21
353.058716
  0
LINE
  8
LC-005-002-RND-0
 62
     2
  6
CONTINUOUS
 10
230.720032
 20
353.058716
 11
230.070648
 21
360.836395
  0
LINE
  8
LC-005-002-RND-0
 62
     2
  6
CONTINUOUS
 10
392.910553
 20
330.836395
 11
393.778046
 21
339.170441
  0
LINE
  8
LC-005-002-RND-0
 62
     2
  6
CONTINUOUS
 10
393.778046
 20
339.170441
 11
391.578766
 21
354.239655
  0
LINE
  8
LC-005-002-RND-0
 62
     2
  6
CONTINUOUS
 10
391.578766
 20
354.239655
 11
392.025024
 21
360.836395
  0
LINE
  8
LC-006-012-----0
 62
     2
  6
DASHED
 10
247.294037
 20
360.836395
 11
370.294037
 21
360.836395
  0
LINE
  8
LC-003-002-----0
 62
     1
  6
CONTINUOUS
 10
370.294037
 20
360.836395
 11
392.025024
 21
360.836395
  0
LINE
  8
LC-006-012-----0
 62
     2
  6
DASHED
 10
247.294037
 20
330.836395
 11
370.294037
 21
330.836395
  0
LINE
  8
LC-003-002-----0
 62
     1
  6
CONTINUOUS
 10
370.294037
 20
330.836395
 11
392.910553
 21
330.836395
  0
LINE
  8
LC-004-006-----0
 62
     2
  6
DASHDOT
 10
435.147400
 20
345.836395
 11
523.583374
 21
345.836395
  0
LINE
  8
LC-004-006-----0
 62
     2
  6
DASHDOT
 10
481.025635
 20
388.412079
 11
481.025635
 21
301.982422
  0
CIRCLE
  8
LC-003-002-----0
 62
     1
  6
CONTINUOUS
 10
481.025635
 20
345.836395
 40
15.000000
  0
CIRCLE
  8
LC-003-002-----0
 62
     1
  6
CONTINUOUS
 10
481.025635
 20
345.836395
 40
38.000000
  0
CIRCLE
  8
LC-006-012-----0
 62
     2
  6
DASHED
 10
481.025635
 20
345.836395
 40
23.500000
  0
CIRCLE
  8
LC-004-006-----0
 62
     2
  6
DASHDOT
 10
481.025635
 20
345.836395
 40
31.000000
  0
CIRCLE
  8
LC-003-002-----0
 62
     1
  6
CONTINUOUS
 10
481.025635
 20
376.836395
 40
5.500000
  0
CIRCLE
  8
LC-003-002-----0
 62
     1
  6
CONTINUOUS
 10
481.025635
 20
376.836395
 40
3.500000
  0
CIRCLE
  8
LC-003-002-----0
 62
     1
  6
CONTINUOUS
 10
450.025635
 20
345.836395
 40
5.500000
  0
CIRCLE
  8
LC-003-002-----0
 62
     1
  6
CONTINUOUS
 10
450.025635
 20
345.836395
 40
3.500000
  0
CIRCLE
  8
LC-003-002-----0
 62
     1
  6
CONTINUOUS
 10
481.025635
 20
314.836395
 40
5.500000
  0
CIRCLE
  8
LC-003-002-----0
 62
     1
  6
CONTINUOUS
 10
481.025635
 20
314.836395
 40
3.500000
  0
CIRCLE
  8
LC-003-002-----0
 62
     1
  6
CONTINUOUS
 10
512.025635
 20
345.836395
 40
3.500000
  0
CIRCLE
  8
LC-003-002-----0
 62
     1
  6
CONTINUOUS
 10
512.025635
 20
345.836395
 40
5.500000
  0
LINE
  8
LC-004-006-----0
 62
     2
  6
DASHDOT
 10
260.118713
 20
376.836395
 11
244.070206
 21
376.836395
  0
LINE
  8
LC-006-012-----0
 62
     2
  6
DASHED
 10
254.094040
 20
382.336395
 11
247.294037
 21
382.336395
  0
LINE
  8
LC-006-012-----0
 62
     2
  6
DASHED
 10
257.294037
 20
380.336395
 11
254.094040
 21
380.336395
  0
LINE
  8
LC-006-012-----0
 62
     2
  6
DASHED
 10
254.094040
 20
382.336395
 11
254.094040
 21
371.336395
  0
LINE
  8
LC-006-012-----0
 62
     2
  6
DASHED
 10
257.294037
 20
373.336395
 11
254.094040
 21
373.336395
  0
LINE
  8
LC-006-012-----0
 62
     2
  6
DASHED
 10
254.094040
 20
371.336395
 11
247.294037
 21
371.336395
  0
LINE
  8
LC-004-006-----0
 62
     2
  6
DASHDOT
 10
260.118713
 20
314.836395
 11
244.070206
 21
314.836395
  0
LINE
  8
LC-006-012-----0
 62
     2
  6
DASHED
 10
254.094040
 20
309.336395
 11
247.294037
 21
309.336395
  0
LINE
  8
LC-006-012-----0
 62
     2
  6
DASHED
 10
257.294037
 20
311.336395
 11
254.094040
 21
311.336395
  0
LINE
  8
LC-006-012-----0
 62
     2
  6
DASHED
 10
254.094040
 20
309.336395
 11
254.094040
 21
320.336395
  0
LINE
  8
LC-006-012-----0
 62
     2
  6
DASHED
 10
257.294037
 20
318.336395
 11
254.094040
 21
318.336395
  0
LINE
  8
LC-006-012-----0
 62
     2
  6
DASHED
 10
254.094040
 20
320.336395
 11
247.294037
 21
320.336395
  0
LINE
  8
LC-006-012-----0
 62
     2
  6
DASHED
 10
254.094040
 20
351.336395
 11
247.294037
 21
351.336395
  0
LINE
  8
LC-006-012-----0
 62
     2
  6
DASHED
 10
257.294037
 20
349.336395
 11
254.094040
 21
349.336395
  0
LINE
  8
LC-006-012-----0
 62
     2
  6
DASHED
 10
254.094040
 20
351.336395
 11
254.094040
 21
340.336395
  0
LINE
  8
LC-006-012-----0
 62
     2
  6
DASHED
 10
257.294037
 20
342.336395
 11
254.094040
 21
342.336395
  0
LINE
  8
LC-006-012-----0
 62
     2
  6
DASHED
 10
254.094040
 20
340.336395
 11
247.294037
 21
340.336395
  0
LINE
  8
LC-003-002-----0
 62
     1
  6
CONTINUOUS
 10
248.044037
 20
307.836395
 11
247.294037
 21
308.586395
  0
LINE
  8
LC-003-002-----0
 62
     1
  6
CONTINUOUS
 10
248.044037
 20
383.836395
 11
247.294037
 21
383.086395
  0
LINE
  8
LC-003-002-----0
 62
     1
  6
CONTINUOUS
 10
248.044037
 20
307.836395
 11
248.044037
 21
383.836395
  0
LINE
  8
LC-003-002-----0
 62
     1
  6
CONTINUOUS
 10
257.294037
 20
383.086395
 11
256.544037
 21
383.836395
  0
LINE
  8
LC-003-002-----0
 62
     1
  6
CONTINUOUS
 10
256.544037
 20
307.836395
 11
257.294037
 21
308.586395
  0
LINE
  8
LC-003-002-----0
 62
     1
  6
CONTINUOUS
 10
256.544037
 20
383.836395
 11
256.544037
 21
307.836395
  0
ARC
  8
LC-003-002-----0
 62
     1
  6
CONTINUOUS
 10
369.044037
 20
368.086395
 40
1.250000
 50
0.000000
 51
90.000003
  0
ARC
  8
LC-003-002-----0
 62
     1
  6
CONTINUOUS
 10
369.044037
 20
323.586395
 40
1.250000
 50
269.999997
 51
0.000000
  0
LINE
  8
LC-003-002-----0
 62
     1
  6
CONTINUOUS
 10
258.044037
 20
322.336395
 11
258.044037
 21
369.336395
  0
LINE
  8
LC-003-002-----0
 62
     1
  6
CONTINUOUS
 10
257.294037
 20
368.586395
 11
258.044037
 21
368.586395
  0
LINE
  8
LC-003-002-----0
 62
     1
  6
CONTINUOUS
 10
257.294037
 20
323.086395
 11
258.044037
 21
323.086395
  0
CIRCLE
  8
LC-003-002-----0
 62
     1
  6
CONTINUOUS
 10
481.025635
 20
345.836395
 40
37.250000
  0
ENDSEC
  0
EOF
