  0
SECTION
  2
HEADER
  9
$LIMMIN
 10
-91.480759
 20
22.417742
  9
$LIMMAX
 10
138.698639
 20
87.520164
  9
$EXTMIN
 10
-91.480759
 20
22.417742
  9
$EXTMAX
 10
138.698639
 20
87.520164
  0
ENDSEC
  0
SECTION
  2
TABLES
  0
TABLE
  2
LTYPE
 70
     3
  0
LTYPE
  2
CONTINUOUS
 70
    64
  3
Ausgezogene Linie
 72
    65
 73
     0
 40
0.0
  0
LTYPE
  2
DASHED
 70
    64
  3
__ __ __ __ __ __ __ __ __ __ __ __ __ __ __
 72
    65
 73
     2
 40
0.75
 49
0.5
 49
-0.25
  0
LTYPE
  2
DASHDOT
 70
    64
  3
__ . __ . __ . __ . __ . __ . __ . __ . __ . __
 72
    65
 73
     4
 40
1.0
 49
0.5
 49
-0.25
 49
0.0
 49
-0.25
  0
ENDTAB
  0
TABLE
  2
LAYER
 70
     4
  0
LAYER
  2
LC-003-002-----0
 70
    64
 62
     7
  6
CONTINUOUS
  0
LAYER
  2
LC-004-006-----0
 70
    64
 62
     7
  6
CONTINUOUS
  0
LAYER
  2
LC-006-012-----0
 70
    64
 62
     7
  6
CONTINUOUS
  0
LAYER
  2
LC-005-002-RND-0
 70
    64
 62
     7
  6
CONTINUOUS
  0
ENDTAB
  0
TABLE
  2
STYLE
 70
     1
  0
STYLE
  2
TXT8
 70
    64
 40
0.0
 41
1.0
 50
0.0
 71
     0
 42
3.500000
  3
TXT8
  4

  0
ENDTAB
  0
ENDSEC
  0
SECTION
  2
BLOCKS
  0
ENDSEC
  0
SECTION
  2
ENTITIES
  0
LINE
  8
LC-004-006-----0
 62
     2
  6
DASHDOT
 10
-91.480759
 20
55.199364
 11
36.970470
 21
55.199364
  0
LINE
  8
LC-003-002-----0
 62
     1
  6
CONTINUOUS
 10
-61.153111
 20
71.199364
 11
9.846891
 21
71.199364
  0
LINE
  8
LC-003-002-----0
 62
     1
  6
CONTINUOUS
 10
-61.153111
 20
39.199364
 11
9.846891
 21
39.199364
  0
LINE
  8
LC-003-002-----0
 62
     1
  6
CONTINUOUS
 10
-69.653107
 20
81.699364
 11
-69.653107
 21
28.699364
  0
LINE
  8
LC-003-002-----0
 62
     1
  6
CONTINUOUS
 10
-61.653111
 20
81.699364
 11
-61.653111
 21
28.699364
  0
LINE
  8
LC-003-002-----0
 62
     1
  6
CONTINUOUS
 10
10.346890
 20
70.699364
 11
10.346890
 21
39.699364
  0
LINE
  8
LC-003-002-----0
 62
     1
  6
CONTINUOUS
 10
-69.153107
 20
82.199364
 11
-62.153114
 21
82.199364
  0
LINE
  8
LC-003-002-----0
 62
     1
  6
CONTINUOUS
 10
-62.153111
 20
28.199364
 11
-69.153107
 21
28.199364
  0
LINE
  8
LC-003-002-----0
 62
     1
  6
CONTINUOUS
 10
-87.653587
 20
65.199364
 11
-69.653107
 21
65.199364
  0
LINE
  8
LC-003-002-----0
 62
     1
  6
CONTINUOUS
 10
-88.371918
 20
45.199364
 11
-69.653107
 21
45.199364
  0
LINE
  8
LC-005-002-RND-0
 62
     2
  6
CONTINUOUS
 10
-88.371918
 20
45.199364
 11
-89.061348
 21
49.071087
  0
LINE
  8
LC-005-002-RND-0
 62
     2
  6
CONTINUOUS
 10
-89.061348
 20
49.071087
 11
-86.641441
 21
58.807838
  0
LINE
  8
LC-005-002-RND-0
 62
     2
  6
CONTINUOUS
 10
-86.641441
 20
58.807838
 11
-87.653587
 21
65.199364
  0
LINE
  8
LC-005-002-RND-0
 62
     2
  6
CONTINUOUS
 10
32.309853
 20
45.199364
 11
31.874893
 21
49.826424
  0
LINE
  8
LC-005-002-RND-0
 62
     2
  6
CONTINUOUS
 10
31.874893
 20
49.826424
 11
32.760227
 21
59.279922
  0
LINE
  8
LC-005-002-RND-0
 62
     2
  6
CONTINUOUS
 10
32.760227
 20
59.279922
 11
31.957150
 21
65.199364
  0
LINE
  8
LC-006-012-----0
 62
     2
  6
DASHED
 10
-69.653107
 20
65.199364
 11
10.346888
 21
65.199364
  0
LINE
  8
LC-003-002-----0
 62
     1
  6
CONTINUOUS
 10
10.346890
 20
65.199364
 11
31.957151
 21
65.199364
  0
LINE
  8
LC-006-012-----0
 62
     2
  6
DASHED
 10
-69.653107
 20
45.199364
 11
10.346888
 21
45.199364
  0
LINE
  8
LC-003-002-----0
 62
     1
  6
CONTINUOUS
 10
10.346890
 20
45.199364
 11
32.309853
 21
45.199364
  0
LINE
  8
LC-004-006-----0
 62
     2
  6
DASHDOT
 10
68.092598
 20
55.199364
 11
138.698639
 21
55.199364
  0
LINE
  8
LC-004-006-----0
 62
     2
  6
DASHDOT
 10
103.817261
 20
87.520164
 11
103.817261
 21
22.417742
  0
CIRCLE
  8
LC-003-002-----0
 62
     1
  6
CONTINUOUS
 10
103.817261
 20
55.199364
 40
10.000000
  0
CIRCLE
  8
LC-006-012-----0
 62
     2
  6
DASHED
 10
103.817261
 20
55.199364
 40
16.000000
  0
CIRCLE
  8
LC-003-002-----0
 62
     1
  6
CONTINUOUS
 10
103.817261
 20
55.199364
 40
27.000000
  0
CIRCLE
  8
LC-004-006-----0
 62
     2
  6
DASHDOT
 10
103.817261
 20
55.199364
 40
21.500000
  0
CIRCLE
  8
LC-003-002-----0
 62
     1
  6
CONTINUOUS
 10
103.817261
 20
76.699364
 40
5.000000
  0
CIRCLE
  8
LC-003-002-----0
 62
     1
  6
CONTINUOUS
 10
103.817261
 20
76.699364
 40
2.900000
  0
CIRCLE
  8
LC-003-002-----0
 62
     1
  6
CONTINUOUS
 10
82.317261
 20
55.199364
 40
5.000000
  0
CIRCLE
  8
LC-003-002-----0
 62
     1
  6
CONTINUOUS
 10
82.317261
 20
55.199364
 40
2.900000
  0
CIRCLE
  8
LC-003-002-----0
 62
     1
  6
CONTINUOUS
 10
103.817261
 20
33.699364
 40
5.000000
  0
CIRCLE
  8
LC-003-002-----0
 62
     1
  6
CONTINUOUS
 10
103.817261
 20
33.699364
 40
2.900000
  0
CIRCLE
  8
LC-003-002-----0
 62
     1
  6
CONTINUOUS
 10
125.317261
 20
55.199364
 40
2.900000
  0
CIRCLE
  8
LC-003-002-----0
 62
     1
  6
CONTINUOUS
 10
125.317261
 20
55.199364
 40
5.000000
  0
LINE
  8
LC-004-006-----0
 62
     2
  6
DASHDOT
 10
-57.961864
 20
76.699364
 11
-73.184013
 21
76.699364
  0
LINE
  8
LC-006-012-----0
 62
     2
  6
DASHED
 10
-63.953110
 20
81.699364
 11
-69.653107
 21
81.699364
  0
LINE
  8
LC-006-012-----0
 62
     2
  6
DASHED
 10
-61.653111
 20
79.599365
 11
-63.953110
 21
79.599365
  0
LINE
  8
LC-006-012-----0
 62
     2
  6
DASHED
 10
-63.953110
 20
81.699364
 11
-63.953110
 21
71.699364
  0
LINE
  8
LC-006-012-----0
 62
     2
  6
DASHED
 10
-63.953110
 20
71.699364
 11
-69.653107
 21
71.699364
  0
LINE
  8
LC-006-012-----0
 62
     2
  6
DASHED
 10
-61.653111
 20
73.799362
 11
-63.953110
 21
73.799362
  0
LINE
  8
LC-004-006-----0
 62
     2
  6
DASHDOT
 10
-57.961864
 20
33.699364
 11
-73.184013
 21
33.699364
  0
LINE
  8
LC-006-012-----0
 62
     2
  6
DASHED
 10
-63.953110
 20
28.699364
 11
-69.653107
 21
28.699364
  0
LINE
  8
LC-006-012-----0
 62
     2
  6
DASHED
 10
-61.653111
 20
30.799364
 11
-63.953110
 21
30.799364
  0
LINE
  8
LC-006-012-----0
 62
     2
  6
DASHED
 10
-63.953110
 20
28.699364
 11
-63.953110
 21
38.699364
  0
LINE
  8
LC-006-012-----0
 62
     2
  6
DASHED
 10
-63.953110
 20
38.699364
 11
-69.653107
 21
38.699364
  0
LINE
  8
LC-006-012-----0
 62
     2
  6
DASHED
 10
-61.653111
 20
36.599365
 11
-63.953110
 21
36.599365
  0
LINE
  8
LC-006-012-----0
 62
     2
  6
DASHED
 10
-63.953110
 20
60.199364
 11
-69.653107
 21
60.199364
  0
LINE
  8
LC-006-012-----0
 62
     2
  6
DASHED
 10
-61.653111
 20
58.099365
 11
-63.953110
 21
58.099365
  0
LINE
  8
LC-006-012-----0
 62
     2
  6
DASHED
 10
-63.953110
 20
60.199364
 11
-63.953110
 21
50.199364
  0
LINE
  8
LC-006-012-----0
 62
     2
  6
DASHED
 10
-63.953110
 20
50.199364
 11
-69.653107
 21
50.199364
  0
LINE
  8
LC-006-012-----0
 62
     2
  6
DASHED
 10
-61.653111
 20
52.299362
 11
-63.953110
 21
52.299362
  0
LINE
  8
LC-003-002-----0
 62
     1
  6
CONTINUOUS
 10
-69.153107
 20
28.199364
 11
-69.653107
 21
28.699364
  0
LINE
  8
LC-003-002-----0
 62
     1
  6
CONTINUOUS
 10
-69.153107
 20
82.199364
 11
-69.653107
 21
81.699364
  0
LINE
  8
LC-003-002-----0
 62
     1
  6
CONTINUOUS
 10
-69.153107
 20
28.199364
 11
-69.153107
 21
82.199364
  0
LINE
  8
LC-003-002-----0
 62
     1
  6
CONTINUOUS
 10
-62.153111
 20
82.199364
 11
-61.653111
 21
81.699364
  0
LINE
  8
LC-003-002-----0
 62
     1
  6
CONTINUOUS
 10
-61.653111
 20
28.699364
 11
-62.153111
 21
28.199364
  0
LINE
  8
LC-003-002-----0
 62
     1
  6
CONTINUOUS
 10
-62.153111
 20
82.199364
 11
-62.153111
 21
28.199364
  0
ARC
  8
LC-003-002-----0
 62
     1
  6
CONTINUOUS
 10
9.846890
 20
70.699364
 40
0.500000
 50
0.000000
 51
90.000003
  0
ARC
  8
LC-003-002-----0
 62
     1
  6
CONTINUOUS
 10
9.846890
 20
39.699364
 40
0.500000
 50
269.999997
 51
0.000000
  0
LINE
  8
LC-003-002-----0
 62
     1
  6
CONTINUOUS
 10
-61.153111
 20
71.199364
 11
-61.153111
 21
39.199364
  0
LINE
  8
LC-003-002-----0
 62
     1
  6
CONTINUOUS
 10
-61.653111
 20
70.699364
 11
-61.153111
 21
70.699364
  0
LINE
  8
LC-003-002-----0
 62
     1
  6
CONTINUOUS
 10
-61.653111
 20
39.699364
 11
-61.153111
 21
39.699364
  0
CIRCLE
  8
LC-003-002-----0
 62
     1
  6
CONTINUOUS
 10
103.817261
 20
55.199364
 40
26.500000
  0
ENDSEC
  0
EOF
