  0
SECTION
  2
HEADER
  9
$LIMMIN
 10
-82.964157
 20
407.211212
  9
$LIMMAX
 10
95.078873
 20
458.976440
  9
$EXTMIN
 10
-82.964157
 20
407.211212
  9
$EXTMAX
 10
95.078873
 20
458.976440
  0
ENDSEC
  0
SECTION
  2
TABLES
  0
TABLE
  2
LTYPE
 70
     3
  0
LTYPE
  2
CONTINUOUS
 70
    64
  3
Ausgezogene Linie
 72
    65
 73
     0
 40
0.0
  0
LTYPE
  2
DASHED
 70
    64
  3
__ __ __ __ __ __ __ __ __ __ __ __ __ __ __
 72
    65
 73
     2
 40
0.75
 49
0.5
 49
-0.25
  0
LTYPE
  2
DASHDOT
 70
    64
  3
__ . __ . __ . __ . __ . __ . __ . __ . __ . __
 72
    65
 73
     4
 40
1.0
 49
0.5
 49
-0.25
 49
0.0
 49
-0.25
  0
ENDTAB
  0
TABLE
  2
LAYER
 70
     4
  0
LAYER
  2
LC-003-002-----0
 70
    64
 62
     7
  6
CONTINUOUS
  0
LAYER
  2
LC-004-006-----0
 70
    64
 62
     7
  6
CONTINUOUS
  0
LAYER
  2
LC-006-012-----0
 70
    64
 62
     7
  6
CONTINUOUS
  0
LAYER
  2
LC-005-002-RND-0
 70
    64
 62
     7
  6
CONTINUOUS
  0
ENDTAB
  0
TABLE
  2
STYLE
 70
     1
  0
STYLE
  2
TXT8
 70
    64
 40
0.0
 41
1.0
 50
0.0
 71
     0
 42
3.500000
  3
TXT8
  4

  0
ENDTAB
  0
ENDSEC
  0
SECTION
  2
BLOCKS
  0
ENDSEC
  0
SECTION
  2
ENTITIES
  0
LINE
  8
LC-004-006-----0
 62
     2
  6
DASHDOT
 10
-82.964157
 20
433.334412
 11
14.365945
 21
433.334412
  0
LINE
  8
LC-003-002-----0
 62
     1
  6
CONTINUOUS
 10
-63.153111
 20
444.334412
 11
-9.153109
 21
444.334412
  0
LINE
  8
LC-003-002-----0
 62
     1
  6
CONTINUOUS
 10
-63.153111
 20
422.334412
 11
-9.153109
 21
422.334412
  0
LINE
  8
LC-003-002-----0
 62
     1
  6
CONTINUOUS
 10
-69.653107
 20
453.834412
 11
-69.653107
 21
412.834412
  0
LINE
  8
LC-003-002-----0
 62
     1
  6
CONTINUOUS
 10
-63.653111
 20
453.834412
 11
-63.653111
 21
412.834412
  0
LINE
  8
LC-003-002-----0
 62
     1
  6
CONTINUOUS
 10
-8.653110
 20
443.834412
 11
-8.653110
 21
422.834412
  0
LINE
  8
LC-003-002-----0
 62
     1
  6
CONTINUOUS
 10
-69.153107
 20
454.334412
 11
-64.153107
 21
454.334412
  0
LINE
  8
LC-003-002-----0
 62
     1
  6
CONTINUOUS
 10
-64.153107
 20
412.334412
 11
-69.153107
 21
412.334412
  0
LINE
  8
LC-003-002-----0
 62
     1
  6
CONTINUOUS
 10
-79.531601
 20
439.334412
 11
-69.653107
 21
439.334412
  0
LINE
  8
LC-003-002-----0
 62
     1
  6
CONTINUOUS
 10
-80.196709
 20
427.334412
 11
-69.653107
 21
427.334412
  0
LINE
  8
LC-005-002-RND-0
 62
     2
  6
CONTINUOUS
 10
-80.196709
 20
427.334412
 11
-79.656525
 21
430.056732
  0
LINE
  8
LC-005-002-RND-0
 62
     2
  6
CONTINUOUS
 10
-79.656525
 20
430.056732
 11
-80.373177
 21
436.080933
  0
LINE
  8
LC-005-002-RND-0
 62
     2
  6
CONTINUOUS
 10
-80.373177
 20
436.080933
 11
-79.531601
 21
439.334412
  0
LINE
  8
LC-005-002-RND-0
 62
     2
  6
CONTINUOUS
 10
11.044844
 20
427.334412
 11
10.617298
 21
429.990601
  0
LINE
  8
LC-005-002-RND-0
 62
     2
  6
CONTINUOUS
 10
10.617298
 20
429.990601
 11
11.147897
 21
435.684113
  0
LINE
  8
LC-005-002-RND-0
 62
     2
  6
CONTINUOUS
 10
11.147897
 20
435.684113
 11
9.731271
 21
439.334412
  0
LINE
  8
LC-006-012-----0
 62
     2
  6
DASHED
 10
-69.653107
 20
439.334412
 11
-8.653112
 21
439.334412
  0
LINE
  8
LC-003-002-----0
 62
     1
  6
CONTINUOUS
 10
-8.653110
 20
439.334412
 11
9.731271
 21
439.334412
  0
LINE
  8
LC-006-012-----0
 62
     2
  6
DASHED
 10
-69.653107
 20
427.334412
 11
-8.653112
 21
427.334412
  0
LINE
  8
LC-003-002-----0
 62
     1
  6
CONTINUOUS
 10
-8.653110
 20
427.334412
 11
11.044844
 21
427.334412
  0
LINE
  8
LC-004-006-----0
 62
     2
  6
DASHDOT
 10
43.064297
 20
433.334412
 11
95.078873
 21
433.334412
  0
LINE
  8
LC-004-006-----0
 62
     2
  6
DASHDOT
 10
68.875854
 20
458.976440
 11
68.875854
 21
407.211212
  0
CIRCLE
  8
LC-003-002-----0
 62
     1
  6
CONTINUOUS
 10
68.875854
 20
433.334412
 40
6.000000
  0
CIRCLE
  8
LC-003-002-----0
 62
     1
  6
CONTINUOUS
 10
68.875854
 20
433.334412
 40
21.000000
  0
CIRCLE
  8
LC-006-012-----0
 62
     2
  6
DASHED
 10
68.875854
 20
433.334412
 40
11.000000
  0
CIRCLE
  8
LC-004-006-----0
 62
     2
  6
DASHDOT
 10
68.875854
 20
433.334412
 40
16.000000
  0
CIRCLE
  8
LC-003-002-----0
 62
     1
  6
CONTINUOUS
 10
68.875854
 20
449.334412
 40
4.000000
  0
CIRCLE
  8
LC-003-002-----0
 62
     1
  6
CONTINUOUS
 10
68.875854
 20
449.334412
 40
2.400000
  0
CIRCLE
  8
LC-003-002-----0
 62
     1
  6
CONTINUOUS
 10
52.875858
 20
433.334412
 40
4.000000
  0
CIRCLE
  8
LC-003-002-----0
 62
     1
  6
CONTINUOUS
 10
52.875858
 20
433.334412
 40
2.400000
  0
CIRCLE
  8
LC-003-002-----0
 62
     1
  6
CONTINUOUS
 10
68.875854
 20
417.334412
 40
2.400000
  0
CIRCLE
  8
LC-003-002-----0
 62
     1
  6
CONTINUOUS
 10
68.875854
 20
417.334412
 40
4.000000
  0
CIRCLE
  8
LC-003-002-----0
 62
     1
  6
CONTINUOUS
 10
84.875854
 20
433.334412
 40
2.400000
  0
CIRCLE
  8
LC-003-002-----0
 62
     1
  6
CONTINUOUS
 10
84.875854
 20
433.334412
 40
4.000000
  0
LINE
  8
LC-004-006-----0
 62
     2
  6
DASHDOT
 10
-60.992813
 20
449.334412
 11
-72.853859
 21
449.334412
  0
LINE
  8
LC-006-012-----0
 62
     2
  6
DASHED
 10
-65.153107
 20
453.334412
 11
-69.653107
 21
453.334412
  0
LINE
  8
LC-006-012-----0
 62
     2
  6
DASHED
 10
-63.653111
 20
451.734436
 11
-65.153107
 21
451.734436
  0
LINE
  8
LC-006-012-----0
 62
     2
  6
DASHED
 10
-65.153107
 20
453.334412
 11
-65.153107
 21
445.334412
  0
LINE
  8
LC-006-012-----0
 62
     2
  6
DASHED
 10
-63.653111
 20
446.934418
 11
-65.153107
 21
446.934418
  0
LINE
  8
LC-006-012-----0
 62
     2
  6
DASHED
 10
-65.153107
 20
445.334412
 11
-69.653107
 21
445.334412
  0
LINE
  8
LC-006-012-----0
 62
     2
  6
DASHED
 10
-65.153107
 20
413.334412
 11
-69.653107
 21
413.334412
  0
LINE
  8
LC-006-012-----0
 62
     2
  6
DASHED
 10
-63.653111
 20
414.934418
 11
-65.153107
 21
414.934418
  0
LINE
  8
LC-006-012-----0
 62
     2
  6
DASHED
 10
-65.153107
 20
413.334412
 11
-65.153107
 21
421.334412
  0
LINE
  8
LC-006-012-----0
 62
     2
  6
DASHED
 10
-63.653111
 20
419.734436
 11
-65.153107
 21
419.734436
  0
LINE
  8
LC-006-012-----0
 62
     2
  6
DASHED
 10
-65.153107
 20
421.334412
 11
-69.653107
 21
421.334412
  0
LINE
  8
LC-004-006-----0
 62
     2
  6
DASHDOT
 10
-60.992813
 20
417.334412
 11
-72.853859
 21
417.334412
  0
LINE
  8
LC-006-012-----0
 62
     2
  6
DASHED
 10
-65.153107
 20
437.334412
 11
-69.653107
 21
437.334412
  0
LINE
  8
LC-006-012-----0
 62
     2
  6
DASHED
 10
-63.653111
 20
435.734436
 11
-65.153107
 21
435.734436
  0
LINE
  8
LC-006-012-----0
 62
     2
  6
DASHED
 10
-65.153107
 20
437.334412
 11
-65.153107
 21
429.334412
  0
LINE
  8
LC-006-012-----0
 62
     2
  6
DASHED
 10
-63.653111
 20
430.934418
 11
-65.153107
 21
430.934418
  0
LINE
  8
LC-006-012-----0
 62
     2
  6
DASHED
 10
-65.153107
 20
429.334412
 11
-69.653107
 21
429.334412
  0
LINE
  8
LC-003-002-----0
 62
     1
  6
CONTINUOUS
 10
-69.153107
 20
412.334412
 11
-69.653107
 21
412.834412
  0
LINE
  8
LC-003-002-----0
 62
     1
  6
CONTINUOUS
 10
-69.153107
 20
454.334412
 11
-69.653107
 21
453.834412
  0
LINE
  8
LC-003-002-----0
 62
     1
  6
CONTINUOUS
 10
-69.153107
 20
412.334412
 11
-69.153107
 21
454.334412
  0
LINE
  8
LC-003-002-----0
 62
     1
  6
CONTINUOUS
 10
-64.153107
 20
454.334412
 11
-63.653114
 21
453.834412
  0
LINE
  8
LC-003-002-----0
 62
     1
  6
CONTINUOUS
 10
-63.653111
 20
412.834412
 11
-64.153107
 21
412.334412
  0
LINE
  8
LC-003-002-----0
 62
     1
  6
CONTINUOUS
 10
-64.153107
 20
454.334412
 11
-64.153107
 21
412.334412
  0
ARC
  8
LC-003-002-----0
 62
     1
  6
CONTINUOUS
 10
-9.153110
 20
443.834412
 40
0.500000
 50
0.000000
 51
90.000003
  0
ARC
  8
LC-003-002-----0
 62
     1
  6
CONTINUOUS
 10
-9.153110
 20
422.834412
 40
0.500000
 50
269.999997
 51
0.000000
  0
LINE
  8
LC-003-002-----0
 62
     1
  6
CONTINUOUS
 10
-63.153111
 20
444.334412
 11
-63.153111
 21
422.334412
  0
LINE
  8
LC-003-002-----0
 62
     1
  6
CONTINUOUS
 10
-63.653111
 20
422.834412
 11
-63.153111
 21
422.834412
  0
LINE
  8
LC-003-002-----0
 62
     1
  6
CONTINUOUS
 10
-63.653111
 20
443.834412
 11
-63.153111
 21
443.834412
  0
CIRCLE
  8
LC-003-002-----0
 62
     1
  6
CONTINUOUS
 10
68.875854
 20
433.334412
 40
20.500000
  0
ENDSEC
  0
EOF
