  0
SECTION
  2
HEADER
  9
$LIMMIN
 10
433.524933
 20
206.257202
  9
$LIMMAX
 10
680.342224
 20
289.850647
  9
$EXTMIN
 10
433.524933
 20
206.257202
  9
$EXTMAX
 10
680.342224
 20
289.850647
  0
ENDSEC
  0
SECTION
  2
TABLES
  0
TABLE
  2
LTYPE
 70
     3
  0
LTYPE
  2
CONTINUOUS
 70
    64
  3
Ausgezogene Linie
 72
    65
 73
     0
 40
0.0
  0
LTYPE
  2
DASHED
 70
    64
  3
__ __ __ __ __ __ __ __ __ __ __ __ __ __ __
 72
    65
 73
     2
 40
0.75
 49
0.5
 49
-0.25
  0
LTYPE
  2
DASHDOT
 70
    64
  3
__ . __ . __ . __ . __ . __ . __ . __ . __ . __
 72
    65
 73
     4
 40
1.0
 49
0.5
 49
-0.25
 49
0.0
 49
-0.25
  0
ENDTAB
  0
TABLE
  2
LAYER
 70
     4
  0
LAYER
  2
LC-003-002-----0
 70
    64
 62
     7
  6
CONTINUOUS
  0
LAYER
  2
LC-004-006-----0
 70
    64
 62
     7
  6
CONTINUOUS
  0
LAYER
  2
LC-006-012-----0
 70
    64
 62
     7
  6
CONTINUOUS
  0
LAYER
  2
LC-005-002-RND-0
 70
    64
 62
     7
  6
CONTINUOUS
  0
ENDTAB
  0
TABLE
  2
STYLE
 70
     1
  0
STYLE
  2
TXT8
 70
    64
 40
0.0
 41
1.0
 50
0.0
 71
     0
 42
3.500000
  3
TXT8
  4

  0
ENDTAB
  0
ENDSEC
  0
SECTION
  2
BLOCKS
  0
ENDSEC
  0
SECTION
  2
ENTITIES
  0
LINE
  8
LC-004-006-----0
 62
     2
  6
DASHDOT
 10
433.524933
 20
248.323792
 11
553.126770
 21
248.323792
  0
LINE
  8
LC-003-002-----0
 62
     1
  6
CONTINUOUS
 10
459.704590
 20
270.823792
 11
467.454590
 21
270.823792
  0
LINE
  8
LC-003-002-----0
 62
     1
  6
CONTINUOUS
 10
459.704590
 20
225.823792
 11
467.454590
 21
225.823792
  0
LINE
  8
LC-003-002-----0
 62
     1
  6
CONTINUOUS
 10
468.454590
 20
285.323792
 11
478.454590
 21
285.323792
  0
LINE
  8
LC-003-002-----0
 62
     1
  6
CONTINUOUS
 10
468.454590
 20
211.323792
 11
478.454590
 21
211.323792
  0
LINE
  8
LC-003-002-----0
 62
     1
  6
CONTINUOUS
 10
468.454590
 20
285.323792
 11
468.454590
 21
211.323792
  0
LINE
  8
LC-003-002-----0
 62
     1
  6
CONTINUOUS
 10
458.454590
 20
269.573792
 11
458.454590
 21
227.073792
  0
LINE
  8
LC-003-002-----0
 62
     1
  6
CONTINUOUS
 10
478.454590
 20
285.323792
 11
478.454590
 21
211.323792
  0
LINE
  8
LC-003-002-----0
 62
     1
  6
CONTINUOUS
 10
522.454590
 20
269.573792
 11
522.454590
 21
227.073792
  0
LINE
  8
LC-003-002-----0
 62
     1
  6
CONTINUOUS
 10
479.454590
 20
270.823792
 11
521.204590
 21
270.823792
  0
LINE
  8
LC-003-002-----0
 62
     1
  6
CONTINUOUS
 10
479.454590
 20
225.823792
 11
521.204590
 21
225.823792
  0
LINE
  8
LC-003-002-----0
 62
     1
  6
CONTINUOUS
 10
437.781403
 20
263.323792
 11
458.454590
 21
263.323792
  0
LINE
  8
LC-003-002-----0
 62
     1
  6
CONTINUOUS
 10
437.785736
 20
233.323792
 11
458.454590
 21
233.323792
  0
LINE
  8
LC-005-002-RND-0
 62
     2
  6
CONTINUOUS
 10
437.785736
 20
233.323792
 11
437.908661
 21
237.394028
  0
LINE
  8
LC-005-002-RND-0
 62
     2
  6
CONTINUOUS
 10
437.908661
 20
237.394028
 11
437.251617
 21
249.624969
  0
LINE
  8
LC-005-002-RND-0
 62
     2
  6
CONTINUOUS
 10
437.251617
 20
249.624969
 11
437.781403
 21
263.323792
  0
LINE
  8
LC-005-002-RND-0
 62
     2
  6
CONTINUOUS
 10
548.755493
 20
233.323792
 11
549.800476
 21
240.255722
  0
LINE
  8
LC-005-002-RND-0
 62
     2
  6
CONTINUOUS
 10
549.800476
 20
240.255722
 11
547.408447
 21
254.457397
  0
LINE
  8
LC-005-002-RND-0
 62
     2
  6
CONTINUOUS
 10
547.408447
 20
254.457397
 11
548.349670
 21
263.323792
  0
LINE
  8
LC-006-012-----0
 62
     2
  6
DASHED
 10
458.454590
 20
263.323792
 11
522.454590
 21
263.323792
  0
LINE
  8
LC-003-002-----0
 62
     1
  6
CONTINUOUS
 10
522.454590
 20
263.323792
 11
548.349670
 21
263.323792
  0
LINE
  8
LC-006-012-----0
 62
     2
  6
DASHED
 10
458.454590
 20
233.323792
 11
522.454590
 21
233.323792
  0
LINE
  8
LC-003-002-----0
 62
     1
  6
CONTINUOUS
 10
522.454590
 20
233.323792
 11
548.755493
 21
233.323792
  0
LINE
  8
LC-004-006-----0
 62
     2
  6
DASHDOT
 10
621.082031
 20
248.323792
 11
680.342224
 21
248.323792
  0
LINE
  8
LC-004-006-----0
 62
     2
  6
DASHDOT
 10
649.850525
 20
289.850647
 11
649.850525
 21
206.257202
  0
CIRCLE
  8
LC-003-002-----0
 62
     1
  6
CONTINUOUS
 10
649.850525
 20
248.323792
 40
15.000000
  0
CIRCLE
  8
LC-003-002-----0
 62
     1
  6
CONTINUOUS
 10
649.850525
 20
248.323792
 40
22.500000
  0
ARC
  8
LC-003-002-----0
 62
     1
  6
CONTINUOUS
 10
649.850525
 20
248.323792
 40
37.000000
 50
226.434039
 51
313.565960
  0
LINE
  8
LC-003-002-----0
 62
     1
  6
CONTINUOUS
 10
675.350525
 20
275.133301
 11
675.350525
 21
221.514297
  0
LINE
  8
LC-003-002-----0
 62
     1
  6
CONTINUOUS
 10
624.350525
 20
275.133301
 11
624.350525
 21
221.514297
  0
ARC
  8
LC-003-002-----0
 62
     1
  6
CONTINUOUS
 10
649.850525
 20
248.323792
 40
37.000000
 50
46.434040
 51
133.565961
  0
LINE
  8
LC-004-006-----0
 62
     2
  6
DASHDOT
 10
667.350525
 20
280.121307
 11
667.350525
 21
265.600250
  0
LINE
  8
LC-004-006-----0
 62
     2
  6
DASHDOT
 10
659.685303
 20
272.823792
 11
673.975342
 21
272.823792
  0
CIRCLE
  8
LC-006-012-----0
 62
     2
  6
DASHED
 10
667.350525
 20
272.823792
 40
5.500000
  0
CIRCLE
  8
LC-003-002-----0
 62
     1
  6
CONTINUOUS
 10
667.350525
 20
272.823792
 40
3.500000
  0
LINE
  8
LC-004-006-----0
 62
     2
  6
DASHDOT
 10
632.350525
 20
280.121307
 11
632.350525
 21
265.600250
  0
LINE
  8
LC-004-006-----0
 62
     2
  6
DASHDOT
 10
640.015747
 20
272.823792
 11
625.725708
 21
272.823792
  0
CIRCLE
  8
LC-006-012-----0
 62
     2
  6
DASHED
 10
632.350525
 20
272.823792
 40
5.500000
  0
CIRCLE
  8
LC-003-002-----0
 62
     1
  6
CONTINUOUS
 10
632.350525
 20
272.823792
 40
3.500000
  0
LINE
  8
LC-004-006-----0
 62
     2
  6
DASHDOT
 10
632.350525
 20
216.526291
 11
632.350525
 21
231.047333
  0
LINE
  8
LC-004-006-----0
 62
     2
  6
DASHDOT
 10
640.015747
 20
223.823792
 11
625.725708
 21
223.823792
  0
CIRCLE
  8
LC-006-012-----0
 62
     2
  6
DASHED
 10
632.350525
 20
223.823792
 40
5.500000
  0
CIRCLE
  8
LC-003-002-----0
 62
     1
  6
CONTINUOUS
 10
632.350525
 20
223.823792
 40
3.500000
  0
LINE
  8
LC-004-006-----0
 62
     2
  6
DASHDOT
 10
667.350525
 20
216.526291
 11
667.350525
 21
231.047333
  0
LINE
  8
LC-004-006-----0
 62
     2
  6
DASHDOT
 10
659.685303
 20
223.823792
 11
673.975342
 21
223.823792
  0
CIRCLE
  8
LC-006-012-----0
 62
     2
  6
DASHED
 10
667.350525
 20
223.823792
 40
5.500000
  0
CIRCLE
  8
LC-003-002-----0
 62
     1
  6
CONTINUOUS
 10
667.350525
 20
223.823792
 40
3.500000
  0
LINE
  8
LC-004-006-----0
 62
     2
  6
DASHDOT
 10
481.744049
 20
272.823792
 11
464.701080
 21
272.823792
  0
LINE
  8
LC-006-012-----0
 62
     2
  6
DASHED
 10
471.654602
 20
269.323792
 11
468.454590
 21
269.323792
  0
LINE
  8
LC-006-012-----0
 62
     2
  6
DASHED
 10
478.454590
 20
267.323792
 11
471.654602
 21
267.323792
  0
LINE
  8
LC-006-012-----0
 62
     2
  6
DASHED
 10
471.654602
 20
278.323792
 11
471.654602
 21
267.323792
  0
LINE
  8
LC-006-012-----0
 62
     2
  6
DASHED
 10
478.454590
 20
278.323792
 11
471.654602
 21
278.323792
  0
LINE
  8
LC-006-012-----0
 62
     2
  6
DASHED
 10
471.654602
 20
276.323792
 11
468.454590
 21
276.323792
  0
LINE
  8
LC-004-006-----0
 62
     2
  6
DASHDOT
 10
481.744049
 20
223.823792
 11
464.701080
 21
223.823792
  0
LINE
  8
LC-006-012-----0
 62
     2
  6
DASHED
 10
471.654602
 20
227.323792
 11
468.454590
 21
227.323792
  0
LINE
  8
LC-006-012-----0
 62
     2
  6
DASHED
 10
478.454590
 20
229.323792
 11
471.654602
 21
229.323792
  0
LINE
  8
LC-006-012-----0
 62
     2
  6
DASHED
 10
471.654602
 20
218.323792
 11
471.654602
 21
229.323792
  0
LINE
  8
LC-006-012-----0
 62
     2
  6
DASHED
 10
478.454590
 20
218.323792
 11
471.654602
 21
218.323792
  0
LINE
  8
LC-006-012-----0
 62
     2
  6
DASHED
 10
471.654602
 20
220.323792
 11
468.454590
 21
220.323792
  0
LINE
  8
LC-003-002-----0
 62
     1
  6
CONTINUOUS
 10
479.454590
 20
270.823792
 11
479.454590
 21
225.823792
  0
LINE
  8
LC-003-002-----0
 62
     1
  6
CONTINUOUS
 10
467.454590
 20
270.823792
 11
467.454590
 21
225.823792
  0
LINE
  8
LC-003-002-----0
 62
     1
  6
CONTINUOUS
 10
467.454590
 20
269.823792
 11
468.454590
 21
269.823792
  0
LINE
  8
LC-003-002-----0
 62
     1
  6
CONTINUOUS
 10
467.454590
 20
226.823792
 11
468.454590
 21
226.823792
  0
LINE
  8
LC-003-002-----0
 62
     1
  6
CONTINUOUS
 10
478.454590
 20
269.823792
 11
479.454590
 21
269.823792
  0
LINE
  8
LC-003-002-----0
 62
     1
  6
CONTINUOUS
 10
478.454590
 20
226.823792
 11
479.454590
 21
226.823792
  0
ARC
  8
LC-003-002-----0
 62
     1
  6
CONTINUOUS
 10
459.704590
 20
269.573792
 40
1.250000
 50
90.000003
 51
180.000009
  0
ARC
  8
LC-003-002-----0
 62
     1
  6
CONTINUOUS
 10
459.704590
 20
227.073792
 40
1.250000
 50
180.000009
 51
269.999997
  0
ARC
  8
LC-003-002-----0
 62
     1
  6
CONTINUOUS
 10
521.204590
 20
227.073792
 40
1.250000
 50
269.999997
 51
0.000000
  0
ARC
  8
LC-003-002-----0
 62
     1
  6
CONTINUOUS
 10
521.204590
 20
269.573792
 40
1.250000
 50
0.000000
 51
90.000003
  0
LINE
  8
LC-003-002-----0
 62
     1
  6
CONTINUOUS
 10
478.454590
 20
275.133301
 11
468.454590
 21
275.133301
  0
LINE
  8
LC-003-002-----0
 62
     1
  6
CONTINUOUS
 10
478.454590
 20
221.514282
 11
468.454590
 21
221.514282
  0
LINE
  8
LC-005-002-RND-0
 62
     2
  6
CONTINUOUS
 10
468.454590
 20
221.514282
 11
478.454590
 21
275.133301
  0
LINE
  8
LC-005-002-RND-0
 62
     2
  6
CONTINUOUS
 10
478.454590
 20
221.514282
 11
468.454590
 21
275.133301
  0
ENDSEC
  0
EOF
