  0
SECTION
  2
HEADER
  9
$LIMMIN
 10
135.912338
 20
223.215378
  9
$LIMMAX
 10
289.480286
 20
277.697021
  9
$EXTMIN
 10
135.912338
 20
223.215378
  9
$EXTMAX
 10
289.480286
 20
277.697021
  0
ENDSEC
  0
SECTION
  2
TABLES
  0
TABLE
  2
LTYPE
 70
     3
  0
LTYPE
  2
CONTINUOUS
 70
    64
  3
Ausgezogene Linie
 72
    65
 73
     0
 40
0.0
  0
LTYPE
  2
DASHED
 70
    64
  3
__ __ __ __ __ __ __ __ __ __ __ __ __ __ __
 72
    65
 73
     2
 40
0.75
 49
0.5
 49
-0.25
  0
LTYPE
  2
DASHDOT
 70
    64
  3
__ . __ . __ . __ . __ . __ . __ . __ . __ . __
 72
    65
 73
     4
 40
1.0
 49
0.5
 49
-0.25
 49
0.0
 49
-0.25
  0
ENDTAB
  0
TABLE
  2
LAYER
 70
     4
  0
LAYER
  2
LC-003-002-----0
 70
    64
 62
     7
  6
CONTINUOUS
  0
LAYER
  2
LC-004-006-----0
 70
    64
 62
     7
  6
CONTINUOUS
  0
LAYER
  2
LC-006-012-----0
 70
    64
 62
     7
  6
CONTINUOUS
  0
LAYER
  2
LC-005-002-RND-0
 70
    64
 62
     7
  6
CONTINUOUS
  0
ENDTAB
  0
TABLE
  2
STYLE
 70
     1
  0
STYLE
  2
TXT8
 70
    64
 40
0.0
 41
1.0
 50
0.0
 71
     0
 42
3.500000
  3
TXT8
  4

  0
ENDTAB
  0
ENDSEC
  0
SECTION
  2
BLOCKS
  0
ENDSEC
  0
SECTION
  2
ENTITIES
  0
LINE
  8
LC-004-006-----0
 62
     2
  6
DASHDOT
 10
135.912338
 20
250.236053
 11
208.493790
 21
250.236053
  0
LINE
  8
LC-003-002-----0
 62
     1
  6
CONTINUOUS
 10
151.280396
 20
264.236053
 11
156.030396
 21
264.236053
  0
LINE
  8
LC-003-002-----0
 62
     1
  6
CONTINUOUS
 10
151.280396
 20
236.236053
 11
156.030396
 21
236.236053
  0
LINE
  8
LC-003-002-----0
 62
     1
  6
CONTINUOUS
 10
156.530396
 20
274.236053
 11
162.530396
 21
274.236053
  0
LINE
  8
LC-003-002-----0
 62
     1
  6
CONTINUOUS
 10
156.530396
 20
226.236053
 11
162.530396
 21
226.236053
  0
LINE
  8
LC-003-002-----0
 62
     1
  6
CONTINUOUS
 10
156.530396
 20
274.236053
 11
156.530396
 21
226.236053
  0
LINE
  8
LC-003-002-----0
 62
     1
  6
CONTINUOUS
 10
162.530396
 20
274.236053
 11
162.530396
 21
226.236053
  0
LINE
  8
LC-003-002-----0
 62
     1
  6
CONTINUOUS
 10
150.530396
 20
263.486053
 11
150.530396
 21
236.986053
  0
LINE
  8
LC-003-002-----0
 62
     1
  6
CONTINUOUS
 10
187.530396
 20
263.486053
 11
187.530396
 21
236.986053
  0
LINE
  8
LC-003-002-----0
 62
     1
  6
CONTINUOUS
 10
139.294495
 20
258.236053
 11
150.530396
 21
258.236053
  0
LINE
  8
LC-003-002-----0
 62
     1
  6
CONTINUOUS
 10
138.813232
 20
242.236053
 11
150.530396
 21
242.236053
  0
LINE
  8
LC-005-002-RND-0
 62
     2
  6
CONTINUOUS
 10
138.813232
 20
242.236053
 11
139.470444
 21
245.704758
  0
LINE
  8
LC-005-002-RND-0
 62
     2
  6
CONTINUOUS
 10
139.470444
 20
245.704758
 11
138.550919
 21
253.715179
  0
LINE
  8
LC-005-002-RND-0
 62
     2
  6
CONTINUOUS
 10
138.550919
 20
253.715179
 11
139.294495
 21
258.236053
  0
LINE
  8
LC-005-002-RND-0
 62
     2
  6
CONTINUOUS
 10
204.638611
 20
242.236053
 11
205.164963
 21
245.499496
  0
LINE
  8
LC-005-002-RND-0
 62
     2
  6
CONTINUOUS
 10
205.164963
 20
245.499496
 11
204.523438
 21
254.265366
  0
LINE
  8
LC-005-002-RND-0
 62
     2
  6
CONTINUOUS
 10
204.523438
 20
254.265366
 11
205.307465
 21
258.236053
  0
LINE
  8
LC-003-002-----0
 62
     1
  6
CONTINUOUS
 10
163.030396
 20
264.236053
 11
186.780396
 21
264.236053
  0
LINE
  8
LC-003-002-----0
 62
     1
  6
CONTINUOUS
 10
163.030396
 20
236.236053
 11
186.780396
 21
236.236053
  0
LINE
  8
LC-006-012-----0
 62
     2
  6
DASHED
 10
150.530396
 20
258.236053
 11
187.530396
 21
258.236053
  0
LINE
  8
LC-003-002-----0
 62
     1
  6
CONTINUOUS
 10
187.530396
 20
258.236053
 11
205.307465
 21
258.236053
  0
LINE
  8
LC-006-012-----0
 62
     2
  6
DASHED
 10
150.530396
 20
242.236053
 11
187.530396
 21
242.236053
  0
LINE
  8
LC-003-002-----0
 62
     1
  6
CONTINUOUS
 10
187.530396
 20
242.236053
 11
204.638611
 21
242.236053
  0
LINE
  8
LC-004-006-----0
 62
     2
  6
DASHDOT
 10
249.607117
 20
250.236053
 11
289.480286
 21
250.236053
  0
LINE
  8
LC-004-006-----0
 62
     2
  6
DASHDOT
 10
269.695465
 20
277.697021
 11
269.695465
 21
223.215378
  0
CIRCLE
  8
LC-003-002-----0
 62
     1
  6
CONTINUOUS
 10
269.695465
 20
250.236053
 40
8.000000
  0
CIRCLE
  8
LC-003-002-----0
 62
     1
  6
CONTINUOUS
 10
269.695465
 20
250.236053
 40
14.000000
  0
ARC
  8
LC-003-002-----0
 62
     1
  6
CONTINUOUS
 10
269.695465
 20
250.236053
 40
24.000000
 50
224.900525
 51
315.099474
  0
LINE
  8
LC-003-002-----0
 62
     1
  6
CONTINUOUS
 10
286.695465
 20
267.177124
 11
286.695465
 21
233.294998
  0
LINE
  8
LC-003-002-----0
 62
     1
  6
CONTINUOUS
 10
252.695465
 20
267.177124
 11
252.695465
 21
233.294998
  0
ARC
  8
LC-003-002-----0
 62
     1
  6
CONTINUOUS
 10
269.695465
 20
250.236053
 40
24.000000
 50
44.900526
 51
135.099475
  0
LINE
  8
LC-004-006-----0
 62
     2
  6
DASHDOT
 10
253.123978
 20
265.736053
 11
264.809448
 21
265.736053
  0
LINE
  8
LC-004-006-----0
 62
     2
  6
DASHDOT
 10
286.266937
 20
265.736053
 11
274.581482
 21
265.736053
  0
LINE
  8
LC-004-006-----0
 62
     2
  6
DASHDOT
 10
280.695465
 20
270.861084
 11
280.695465
 21
260.333282
  0
LINE
  8
LC-004-006-----0
 62
     2
  6
DASHDOT
 10
258.695465
 20
270.861084
 11
258.695465
 21
260.333282
  0
CIRCLE
  8
LC-006-012-----0
 62
     2
  6
DASHED
 10
258.695465
 20
265.736053
 40
4.000000
  0
CIRCLE
  8
LC-003-002-----0
 62
     1
  6
CONTINUOUS
 10
258.695465
 20
265.736053
 40
2.400000
  0
CIRCLE
  8
LC-006-012-----0
 62
     2
  6
DASHED
 10
280.695465
 20
265.736053
 40
4.000000
  0
CIRCLE
  8
LC-003-002-----0
 62
     1
  6
CONTINUOUS
 10
280.695465
 20
265.736053
 40
2.400000
  0
LINE
  8
LC-004-006-----0
 62
     2
  6
DASHDOT
 10
253.123978
 20
234.736053
 11
264.809448
 21
234.736053
  0
LINE
  8
LC-004-006-----0
 62
     2
  6
DASHDOT
 10
258.695465
 20
229.611023
 11
258.695465
 21
240.138855
  0
CIRCLE
  8
LC-006-012-----0
 62
     2
  6
DASHED
 10
258.695465
 20
234.736053
 40
4.000000
  0
CIRCLE
  8
LC-003-002-----0
 62
     1
  6
CONTINUOUS
 10
258.695465
 20
234.736053
 40
2.400000
  0
LINE
  8
LC-004-006-----0
 62
     2
  6
DASHDOT
 10
286.266937
 20
234.736053
 11
274.581482
 21
234.736053
  0
LINE
  8
LC-004-006-----0
 62
     2
  6
DASHDOT
 10
280.695465
 20
229.611023
 11
280.695465
 21
240.138855
  0
CIRCLE
  8
LC-006-012-----0
 62
     2
  6
DASHED
 10
280.695465
 20
234.736053
 40
4.000000
  0
CIRCLE
  8
LC-003-002-----0
 62
     1
  6
CONTINUOUS
 10
280.695465
 20
234.736053
 40
2.400000
  0
LINE
  8
LC-004-006-----0
 62
     2
  6
DASHDOT
 10
164.567535
 20
265.736053
 11
154.447830
 21
265.736053
  0
LINE
  8
LC-006-012-----0
 62
     2
  6
DASHED
 10
162.530396
 20
269.736053
 11
158.030396
 21
269.736053
  0
LINE
  8
LC-006-012-----0
 62
     2
  6
DASHED
 10
158.030396
 20
268.136047
 11
156.530396
 21
268.136047
  0
LINE
  8
LC-006-012-----0
 62
     2
  6
DASHED
 10
158.030396
 20
269.736053
 11
158.030396
 21
261.736053
  0
LINE
  8
LC-006-012-----0
 62
     2
  6
DASHED
 10
162.530396
 20
261.736053
 11
158.030396
 21
261.736053
  0
LINE
  8
LC-006-012-----0
 62
     2
  6
DASHED
 10
158.030396
 20
263.336060
 11
156.530396
 21
263.336060
  0
LINE
  8
LC-004-006-----0
 62
     2
  6
DASHDOT
 10
164.567535
 20
234.736053
 11
154.447830
 21
234.736053
  0
LINE
  8
LC-006-012-----0
 62
     2
  6
DASHED
 10
162.530396
 20
230.736053
 11
158.030396
 21
230.736053
  0
LINE
  8
LC-006-012-----0
 62
     2
  6
DASHED
 10
158.030396
 20
232.336060
 11
156.530396
 21
232.336060
  0
LINE
  8
LC-006-012-----0
 62
     2
  6
DASHED
 10
158.030396
 20
230.736053
 11
158.030396
 21
238.736053
  0
LINE
  8
LC-006-012-----0
 62
     2
  6
DASHED
 10
162.530396
 20
238.736053
 11
158.030396
 21
238.736053
  0
LINE
  8
LC-006-012-----0
 62
     2
  6
DASHED
 10
158.030396
 20
237.136063
 11
156.530396
 21
237.136063
  0
ARC
  8
LC-003-002-----0
 62
     1
  6
CONTINUOUS
 10
151.280396
 20
263.486053
 40
0.750000
 50
90.000003
 51
180.000009
  0
ARC
  8
LC-003-002-----0
 62
     1
  6
CONTINUOUS
 10
151.280396
 20
236.986053
 40
0.750000
 50
180.000009
 51
269.999997
  0
ARC
  8
LC-003-002-----0
 62
     1
  6
CONTINUOUS
 10
186.780396
 20
236.986053
 40
0.750000
 50
269.999997
 51
0.000000
  0
ARC
  8
LC-003-002-----0
 62
     1
  6
CONTINUOUS
 10
186.780396
 20
263.486053
 40
0.750000
 50
0.000000
 51
90.000003
  0
LINE
  8
LC-003-002-----0
 62
     1
  6
CONTINUOUS
 10
156.030396
 20
264.236053
 11
156.030396
 21
236.236053
  0
LINE
  8
LC-003-002-----0
 62
     1
  6
CONTINUOUS
 10
163.030396
 20
264.236053
 11
163.030396
 21
236.236053
  0
LINE
  8
LC-003-002-----0
 62
     1
  6
CONTINUOUS
 10
156.030396
 20
236.736053
 11
156.530396
 21
236.736053
  0
LINE
  8
LC-003-002-----0
 62
     1
  6
CONTINUOUS
 10
156.030396
 20
263.736053
 11
156.530396
 21
263.736053
  0
LINE
  8
LC-003-002-----0
 62
     1
  6
CONTINUOUS
 10
162.530396
 20
263.736053
 11
163.030396
 21
263.736053
  0
LINE
  8
LC-003-002-----0
 62
     1
  6
CONTINUOUS
 10
162.530396
 20
236.736053
 11
163.030396
 21
236.736053
  0
LINE
  8
LC-003-002-----0
 62
     1
  6
CONTINUOUS
 10
162.530396
 20
267.177124
 11
156.530396
 21
267.177124
  0
LINE
  8
LC-003-002-----0
 62
     1
  6
CONTINUOUS
 10
162.530396
 20
233.294983
 11
156.530396
 21
233.294983
  0
LINE
  8
LC-005-002-RND-0
 62
     2
  6
CONTINUOUS
 10
156.530396
 20
233.294983
 11
162.530396
 21
267.177124
  0
LINE
  8
LC-005-002-RND-0
 62
     2
  6
CONTINUOUS
 10
162.530396
 20
233.294983
 11
156.530396
 21
267.177124
  0
ENDSEC
  0
EOF
