  0
SECTION
  2
HEADER
  9
$LIMMIN
 10
296.885681
 20
457.977692
  9
$LIMMAX
 10
541.272949
 20
544.407349
  9
$EXTMIN
 10
296.885681
 20
457.977692
  9
$EXTMAX
 10
541.272949
 20
544.407349
  0
ENDSEC
  0
SECTION
  2
TABLES
  0
TABLE
  2
LTYPE
 70
     3
  0
LTYPE
  2
CONTINUOUS
 70
    64
  3
Ausgezogene Linie
 72
    65
 73
     0
 40
0.0
  0
LTYPE
  2
DASHED
 70
    64
  3
__ __ __ __ __ __ __ __ __ __ __ __ __ __ __
 72
    65
 73
     2
 40
0.75
 49
0.5
 49
-0.25
  0
LTYPE
  2
DASHDOT
 70
    64
  3
__ . __ . __ . __ . __ . __ . __ . __ . __ . __
 72
    65
 73
     4
 40
1.0
 49
0.5
 49
-0.25
 49
0.0
 49
-0.25
  0
ENDTAB
  0
TABLE
  2
LAYER
 70
     4
  0
LAYER
  2
LC-003-002-----0
 70
    64
 62
     7
  6
CONTINUOUS
  0
LAYER
  2
LC-004-006-----0
 70
    64
 62
     7
  6
CONTINUOUS
  0
LAYER
  2
LC-006-012-----0
 70
    64
 62
     7
  6
CONTINUOUS
  0
LAYER
  2
LC-005-002-RND-0
 70
    64
 62
     7
  6
CONTINUOUS
  0
ENDTAB
  0
TABLE
  2
STYLE
 70
     1
  0
STYLE
  2
TXT8
 70
    64
 40
0.0
 41
1.0
 50
0.0
 71
     0
 42
3.500000
  3
TXT8
  4

  0
ENDTAB
  0
ENDSEC
  0
SECTION
  2
BLOCKS
  0
ENDSEC
  0
SECTION
  2
ENTITIES
  0
LINE
  8
LC-004-006-----0
 62
     2
  6
DASHDOT
 10
296.885681
 20
501.831665
 11
416.294067
 21
501.831665
  0
LINE
  8
LC-003-002-----0
 62
     1
  6
CONTINUOUS
 10
330.733643
 20
525.331665
 11
386.733643
 21
525.331665
  0
LINE
  8
LC-003-002-----0
 62
     1
  6
CONTINUOUS
 10
330.733643
 20
478.331665
 11
386.733643
 21
478.331665
  0
LINE
  8
LC-003-002-----0
 62
     1
  6
CONTINUOUS
 10
329.233643
 20
539.831665
 11
320.733643
 21
539.831665
  0
LINE
  8
LC-003-002-----0
 62
     1
  6
CONTINUOUS
 10
320.733643
 20
463.831665
 11
329.233643
 21
463.831665
  0
LINE
  8
LC-003-002-----0
 62
     1
  6
CONTINUOUS
 10
319.983643
 20
539.081665
 11
319.983643
 21
464.581665
  0
LINE
  8
LC-003-002-----0
 62
     1
  6
CONTINUOUS
 10
329.983643
 20
464.581665
 11
329.983643
 21
539.081665
  0
LINE
  8
LC-003-002-----0
 62
     1
  6
CONTINUOUS
 10
387.983643
 20
524.081665
 11
387.983643
 21
479.581665
  0
LINE
  8
LC-003-002-----0
 62
     1
  6
CONTINUOUS
 10
302.760254
 20
516.831665
 11
319.983643
 21
516.831665
  0
LINE
  8
LC-003-002-----0
 62
     1
  6
CONTINUOUS
 10
301.456787
 20
486.831665
 11
319.983643
 21
486.831665
  0
LINE
  8
LC-005-002-RND-0
 62
     2
  6
CONTINUOUS
 10
301.456787
 20
486.831665
 11
300.425964
 21
495.756195
  0
LINE
  8
LC-005-002-RND-0
 62
     2
  6
CONTINUOUS
 10
300.425964
 20
495.756195
 11
303.409637
 21
509.053986
  0
LINE
  8
LC-005-002-RND-0
 62
     2
  6
CONTINUOUS
 10
303.409637
 20
509.053986
 11
302.760254
 21
516.831665
  0
LINE
  8
LC-005-002-RND-0
 62
     2
  6
CONTINUOUS
 10
410.600159
 20
486.831665
 11
411.467651
 21
495.165741
  0
LINE
  8
LC-005-002-RND-0
 62
     2
  6
CONTINUOUS
 10
411.467651
 20
495.165741
 11
409.268341
 21
510.234924
  0
LINE
  8
LC-005-002-RND-0
 62
     2
  6
CONTINUOUS
 10
409.268341
 20
510.234924
 11
409.714630
 21
516.831665
  0
LINE
  8
LC-006-012-----0
 62
     2
  6
DASHED
 10
319.983643
 20
516.831665
 11
387.983643
 21
516.831665
  0
LINE
  8
LC-003-002-----0
 62
     1
  6
CONTINUOUS
 10
387.983643
 20
516.831665
 11
409.714630
 21
516.831665
  0
LINE
  8
LC-006-012-----0
 62
     2
  6
DASHED
 10
319.983643
 20
486.831665
 11
387.983643
 21
486.831665
  0
LINE
  8
LC-003-002-----0
 62
     1
  6
CONTINUOUS
 10
387.983643
 20
486.831665
 11
410.600159
 21
486.831665
  0
LINE
  8
LC-004-006-----0
 62
     2
  6
DASHDOT
 10
452.837006
 20
501.831665
 11
541.272949
 21
501.831665
  0
LINE
  8
LC-004-006-----0
 62
     2
  6
DASHDOT
 10
498.715240
 20
544.407349
 11
498.715240
 21
457.977692
  0
CIRCLE
  8
LC-003-002-----0
 62
     1
  6
CONTINUOUS
 10
498.715240
 20
501.831665
 40
15.000000
  0
CIRCLE
  8
LC-003-002-----0
 62
     1
  6
CONTINUOUS
 10
498.715240
 20
501.831665
 40
38.000000
  0
CIRCLE
  8
LC-006-012-----0
 62
     2
  6
DASHED
 10
498.715240
 20
501.831665
 40
23.500000
  0
CIRCLE
  8
LC-004-006-----0
 62
     2
  6
DASHDOT
 10
498.715240
 20
501.831665
 40
31.000000
  0
CIRCLE
  8
LC-003-002-----0
 62
     1
  6
CONTINUOUS
 10
498.715240
 20
532.831665
 40
5.500000
  0
CIRCLE
  8
LC-003-002-----0
 62
     1
  6
CONTINUOUS
 10
498.715240
 20
532.831665
 40
3.500000
  0
CIRCLE
  8
LC-003-002-----0
 62
     1
  6
CONTINUOUS
 10
467.715240
 20
501.831665
 40
5.500000
  0
CIRCLE
  8
LC-003-002-----0
 62
     1
  6
CONTINUOUS
 10
467.715240
 20
501.831665
 40
3.500000
  0
CIRCLE
  8
LC-003-002-----0
 62
     1
  6
CONTINUOUS
 10
498.715240
 20
470.831665
 40
5.500000
  0
CIRCLE
  8
LC-003-002-----0
 62
     1
  6
CONTINUOUS
 10
498.715240
 20
470.831665
 40
3.500000
  0
CIRCLE
  8
LC-003-002-----0
 62
     1
  6
CONTINUOUS
 10
529.715210
 20
501.831665
 40
3.500000
  0
CIRCLE
  8
LC-003-002-----0
 62
     1
  6
CONTINUOUS
 10
529.715210
 20
501.831665
 40
5.500000
  0
LINE
  8
LC-004-006-----0
 62
     2
  6
DASHDOT
 10
332.808319
 20
532.831665
 11
316.759766
 21
532.831665
  0
LINE
  8
LC-006-012-----0
 62
     2
  6
DASHED
 10
326.783630
 20
538.331665
 11
319.983643
 21
538.331665
  0
LINE
  8
LC-006-012-----0
 62
     2
  6
DASHED
 10
329.983643
 20
536.331665
 11
326.783630
 21
536.331665
  0
LINE
  8
LC-006-012-----0
 62
     2
  6
DASHED
 10
326.783630
 20
538.331665
 11
326.783630
 21
527.331665
  0
LINE
  8
LC-006-012-----0
 62
     2
  6
DASHED
 10
329.983643
 20
529.331665
 11
326.783630
 21
529.331665
  0
LINE
  8
LC-006-012-----0
 62
     2
  6
DASHED
 10
326.783630
 20
527.331665
 11
319.983643
 21
527.331665
  0
LINE
  8
LC-004-006-----0
 62
     2
  6
DASHDOT
 10
332.808319
 20
470.831665
 11
316.759766
 21
470.831665
  0
LINE
  8
LC-006-012-----0
 62
     2
  6
DASHED
 10
326.783630
 20
465.331665
 11
319.983643
 21
465.331665
  0
LINE
  8
LC-006-012-----0
 62
     2
  6
DASHED
 10
329.983643
 20
467.331665
 11
326.783630
 21
467.331665
  0
LINE
  8
LC-006-012-----0
 62
     2
  6
DASHED
 10
326.783630
 20
465.331665
 11
326.783630
 21
476.331665
  0
LINE
  8
LC-006-012-----0
 62
     2
  6
DASHED
 10
329.983643
 20
474.331665
 11
326.783630
 21
474.331665
  0
LINE
  8
LC-006-012-----0
 62
     2
  6
DASHED
 10
326.783630
 20
476.331665
 11
319.983643
 21
476.331665
  0
LINE
  8
LC-006-012-----0
 62
     2
  6
DASHED
 10
326.783630
 20
507.331665
 11
319.983643
 21
507.331665
  0
LINE
  8
LC-006-012-----0
 62
     2
  6
DASHED
 10
329.983643
 20
505.331665
 11
326.783630
 21
505.331665
  0
LINE
  8
LC-006-012-----0
 62
     2
  6
DASHED
 10
326.783630
 20
507.331665
 11
326.783630
 21
496.331665
  0
LINE
  8
LC-006-012-----0
 62
     2
  6
DASHED
 10
329.983643
 20
498.331665
 11
326.783630
 21
498.331665
  0
LINE
  8
LC-006-012-----0
 62
     2
  6
DASHED
 10
326.783630
 20
496.331665
 11
319.983643
 21
496.331665
  0
LINE
  8
LC-003-002-----0
 62
     1
  6
CONTINUOUS
 10
320.733643
 20
463.831665
 11
319.983643
 21
464.581665
  0
LINE
  8
LC-003-002-----0
 62
     1
  6
CONTINUOUS
 10
320.733643
 20
539.831665
 11
319.983643
 21
539.081665
  0
LINE
  8
LC-003-002-----0
 62
     1
  6
CONTINUOUS
 10
320.733643
 20
463.831665
 11
320.733643
 21
539.831665
  0
LINE
  8
LC-003-002-----0
 62
     1
  6
CONTINUOUS
 10
329.983643
 20
539.081665
 11
329.233643
 21
539.831665
  0
LINE
  8
LC-003-002-----0
 62
     1
  6
CONTINUOUS
 10
329.233643
 20
463.831665
 11
329.983643
 21
464.581665
  0
LINE
  8
LC-003-002-----0
 62
     1
  6
CONTINUOUS
 10
329.233643
 20
539.831665
 11
329.233643
 21
463.831665
  0
ARC
  8
LC-003-002-----0
 62
     1
  6
CONTINUOUS
 10
386.733643
 20
524.081665
 40
1.250000
 50
0.000000
 51
90.000003
  0
ARC
  8
LC-003-002-----0
 62
     1
  6
CONTINUOUS
 10
386.733643
 20
479.581665
 40
1.250000
 50
269.999997
 51
0.000000
  0
LINE
  8
LC-003-002-----0
 62
     1
  6
CONTINUOUS
 10
330.733643
 20
478.331665
 11
330.733643
 21
525.331665
  0
LINE
  8
LC-003-002-----0
 62
     1
  6
CONTINUOUS
 10
329.983643
 20
479.081665
 11
330.733643
 21
479.081665
  0
LINE
  8
LC-003-002-----0
 62
     1
  6
CONTINUOUS
 10
329.983643
 20
524.581665
 11
330.733643
 21
524.581665
  0
CIRCLE
  8
LC-003-002-----0
 62
     1
  6
CONTINUOUS
 10
498.715240
 20
501.831665
 40
37.250000
  0
ENDSEC
  0
EOF
