  0
SECTION
  2
HEADER
  9
$LIMMIN
 10
61.583946
 20
357.211212
  9
$LIMMAX
 10
210.626968
 20
408.976440
  9
$EXTMIN
 10
61.583946
 20
357.211212
  9
$EXTMAX
 10
210.626968
 20
408.976440
  0
ENDSEC
  0
SECTION
  2
TABLES
  0
TABLE
  2
LTYPE
 70
     3
  0
LTYPE
  2
CONTINUOUS
 70
    64
  3
Ausgezogene Linie
 72
    65
 73
     0
 40
0.0
  0
LTYPE
  2
DASHED
 70
    64
  3
__ __ __ __ __ __ __ __ __ __ __ __ __ __ __
 72
    65
 73
     2
 40
0.75
 49
0.5
 49
-0.25
  0
LTYPE
  2
DASHDOT
 70
    64
  3
__ . __ . __ . __ . __ . __ . __ . __ . __ . __
 72
    65
 73
     4
 40
1.0
 49
0.5
 49
-0.25
 49
0.0
 49
-0.25
  0
ENDTAB
  0
TABLE
  2
LAYER
 70
     4
  0
LAYER
  2
LC-003-002-----0
 70
    64
 62
     7
  6
CONTINUOUS
  0
LAYER
  2
LC-004-006-----0
 70
    64
 62
     7
  6
CONTINUOUS
  0
LAYER
  2
LC-006-012-----0
 70
    64
 62
     7
  6
CONTINUOUS
  0
LAYER
  2
LC-005-002-RND-0
 70
    64
 62
     7
  6
CONTINUOUS
  0
ENDTAB
  0
TABLE
  2
STYLE
 70
     1
  0
STYLE
  2
TXT8
 70
    64
 40
0.0
 41
1.0
 50
0.0
 71
     0
 42
3.500000
  3
TXT8
  4

  0
ENDTAB
  0
ENDSEC
  0
SECTION
  2
BLOCKS
  0
ENDSEC
  0
SECTION
  2
ENTITIES
  0
LINE
  8
LC-004-006-----0
 62
     2
  6
DASHDOT
 10
61.583946
 20
383.334412
 11
129.914047
 21
383.334412
  0
LINE
  8
LC-003-002-----0
 62
     1
  6
CONTINUOUS
 10
81.394989
 20
394.334412
 11
106.394989
 21
394.334412
  0
LINE
  8
LC-003-002-----0
 62
     1
  6
CONTINUOUS
 10
81.394989
 20
372.334412
 11
106.394989
 21
372.334412
  0
LINE
  8
LC-003-002-----0
 62
     1
  6
CONTINUOUS
 10
74.894989
 20
403.834412
 11
74.894989
 21
362.834412
  0
LINE
  8
LC-003-002-----0
 62
     1
  6
CONTINUOUS
 10
80.894989
 20
403.834412
 11
80.894989
 21
362.834412
  0
LINE
  8
LC-003-002-----0
 62
     1
  6
CONTINUOUS
 10
106.894989
 20
393.834412
 11
106.894989
 21
372.834412
  0
LINE
  8
LC-003-002-----0
 62
     1
  6
CONTINUOUS
 10
75.394989
 20
404.334412
 11
80.394989
 21
404.334412
  0
LINE
  8
LC-003-002-----0
 62
     1
  6
CONTINUOUS
 10
80.394989
 20
362.334412
 11
75.394989
 21
362.334412
  0
LINE
  8
LC-003-002-----0
 62
     1
  6
CONTINUOUS
 10
65.016502
 20
389.334412
 11
74.894989
 21
389.334412
  0
LINE
  8
LC-003-002-----0
 62
     1
  6
CONTINUOUS
 10
64.351387
 20
377.334412
 11
74.894989
 21
377.334412
  0
LINE
  8
LC-005-002-RND-0
 62
     2
  6
CONTINUOUS
 10
64.351387
 20
377.334412
 11
64.891571
 21
380.056732
  0
LINE
  8
LC-005-002-RND-0
 62
     2
  6
CONTINUOUS
 10
64.891571
 20
380.056732
 11
64.174919
 21
386.080933
  0
LINE
  8
LC-005-002-RND-0
 62
     2
  6
CONTINUOUS
 10
64.174919
 20
386.080933
 11
65.016502
 21
389.334412
  0
LINE
  8
LC-005-002-RND-0
 62
     2
  6
CONTINUOUS
 10
126.592941
 20
377.334412
 11
126.165398
 21
379.990601
  0
LINE
  8
LC-005-002-RND-0
 62
     2
  6
CONTINUOUS
 10
126.165398
 20
379.990601
 11
126.695999
 21
385.684113
  0
LINE
  8
LC-005-002-RND-0
 62
     2
  6
CONTINUOUS
 10
126.695999
 20
385.684113
 11
125.279373
 21
389.334412
  0
LINE
  8
LC-006-012-----0
 62
     2
  6
DASHED
 10
74.894989
 20
389.334412
 11
106.894989
 21
389.334412
  0
LINE
  8
LC-003-002-----0
 62
     1
  6
CONTINUOUS
 10
106.894989
 20
389.334412
 11
125.279373
 21
389.334412
  0
LINE
  8
LC-006-012-----0
 62
     2
  6
DASHED
 10
74.894989
 20
377.334412
 11
106.894989
 21
377.334412
  0
LINE
  8
LC-003-002-----0
 62
     1
  6
CONTINUOUS
 10
106.894989
 20
377.334412
 11
126.592941
 21
377.334412
  0
LINE
  8
LC-004-006-----0
 62
     2
  6
DASHDOT
 10
158.612396
 20
383.334412
 11
210.626968
 21
383.334412
  0
LINE
  8
LC-004-006-----0
 62
     2
  6
DASHDOT
 10
184.423965
 20
408.976440
 11
184.423965
 21
357.211212
  0
CIRCLE
  8
LC-003-002-----0
 62
     1
  6
CONTINUOUS
 10
184.423965
 20
383.334412
 40
6.000000
  0
CIRCLE
  8
LC-003-002-----0
 62
     1
  6
CONTINUOUS
 10
184.423965
 20
383.334412
 40
21.000000
  0
CIRCLE
  8
LC-006-012-----0
 62
     2
  6
DASHED
 10
184.423965
 20
383.334412
 40
11.000000
  0
CIRCLE
  8
LC-004-006-----0
 62
     2
  6
DASHDOT
 10
184.423965
 20
383.334412
 40
16.000000
  0
CIRCLE
  8
LC-003-002-----0
 62
     1
  6
CONTINUOUS
 10
184.423965
 20
399.334412
 40
4.000000
  0
CIRCLE
  8
LC-003-002-----0
 62
     1
  6
CONTINUOUS
 10
184.423965
 20
399.334412
 40
2.400000
  0
CIRCLE
  8
LC-003-002-----0
 62
     1
  6
CONTINUOUS
 10
168.423965
 20
383.334412
 40
4.000000
  0
CIRCLE
  8
LC-003-002-----0
 62
     1
  6
CONTINUOUS
 10
168.423965
 20
383.334412
 40
2.400000
  0
CIRCLE
  8
LC-003-002-----0
 62
     1
  6
CONTINUOUS
 10
184.423965
 20
367.334412
 40
2.400000
  0
CIRCLE
  8
LC-003-002-----0
 62
     1
  6
CONTINUOUS
 10
184.423965
 20
367.334412
 40
4.000000
  0
CIRCLE
  8
LC-003-002-----0
 62
     1
  6
CONTINUOUS
 10
200.423965
 20
383.334412
 40
2.400000
  0
CIRCLE
  8
LC-003-002-----0
 62
     1
  6
CONTINUOUS
 10
200.423965
 20
383.334412
 40
4.000000
  0
LINE
  8
LC-004-006-----0
 62
     2
  6
DASHDOT
 10
83.555290
 20
399.334412
 11
71.694244
 21
399.334412
  0
LINE
  8
LC-006-012-----0
 62
     2
  6
DASHED
 10
79.394989
 20
403.334412
 11
74.894989
 21
403.334412
  0
LINE
  8
LC-006-012-----0
 62
     2
  6
DASHED
 10
80.894989
 20
401.734436
 11
79.394989
 21
401.734436
  0
LINE
  8
LC-006-012-----0
 62
     2
  6
DASHED
 10
79.394989
 20
403.334412
 11
79.394989
 21
395.334412
  0
LINE
  8
LC-006-012-----0
 62
     2
  6
DASHED
 10
80.894989
 20
396.934418
 11
79.394989
 21
396.934418
  0
LINE
  8
LC-006-012-----0
 62
     2
  6
DASHED
 10
79.394989
 20
395.334412
 11
74.894989
 21
395.334412
  0
LINE
  8
LC-006-012-----0
 62
     2
  6
DASHED
 10
79.394989
 20
363.334412
 11
74.894989
 21
363.334412
  0
LINE
  8
LC-006-012-----0
 62
     2
  6
DASHED
 10
80.894989
 20
364.934418
 11
79.394989
 21
364.934418
  0
LINE
  8
LC-006-012-----0
 62
     2
  6
DASHED
 10
79.394989
 20
363.334412
 11
79.394989
 21
371.334412
  0
LINE
  8
LC-006-012-----0
 62
     2
  6
DASHED
 10
80.894989
 20
369.734436
 11
79.394989
 21
369.734436
  0
LINE
  8
LC-006-012-----0
 62
     2
  6
DASHED
 10
79.394989
 20
371.334412
 11
74.894989
 21
371.334412
  0
LINE
  8
LC-004-006-----0
 62
     2
  6
DASHDOT
 10
83.555290
 20
367.334412
 11
71.694244
 21
367.334412
  0
LINE
  8
LC-006-012-----0
 62
     2
  6
DASHED
 10
79.394989
 20
387.334412
 11
74.894989
 21
387.334412
  0
LINE
  8
LC-006-012-----0
 62
     2
  6
DASHED
 10
80.894989
 20
385.734436
 11
79.394989
 21
385.734436
  0
LINE
  8
LC-006-012-----0
 62
     2
  6
DASHED
 10
79.394989
 20
387.334412
 11
79.394989
 21
379.334412
  0
LINE
  8
LC-006-012-----0
 62
     2
  6
DASHED
 10
80.894989
 20
380.934418
 11
79.394989
 21
380.934418
  0
LINE
  8
LC-006-012-----0
 62
     2
  6
DASHED
 10
79.394989
 20
379.334412
 11
74.894989
 21
379.334412
  0
LINE
  8
LC-003-002-----0
 62
     1
  6
CONTINUOUS
 10
75.394989
 20
362.334412
 11
74.894989
 21
362.834412
  0
LINE
  8
LC-003-002-----0
 62
     1
  6
CONTINUOUS
 10
75.394989
 20
404.334412
 11
74.894989
 21
403.834412
  0
LINE
  8
LC-003-002-----0
 62
     1
  6
CONTINUOUS
 10
75.394989
 20
362.334412
 11
75.394989
 21
404.334412
  0
LINE
  8
LC-003-002-----0
 62
     1
  6
CONTINUOUS
 10
80.394989
 20
404.334412
 11
80.894989
 21
403.834412
  0
LINE
  8
LC-003-002-----0
 62
     1
  6
CONTINUOUS
 10
80.894989
 20
362.834412
 11
80.394989
 21
362.334412
  0
LINE
  8
LC-003-002-----0
 62
     1
  6
CONTINUOUS
 10
80.394989
 20
404.334412
 11
80.394989
 21
362.334412
  0
ARC
  8
LC-003-002-----0
 62
     1
  6
CONTINUOUS
 10
106.394989
 20
393.834412
 40
0.500000
 50
0.000000
 51
90.000003
  0
ARC
  8
LC-003-002-----0
 62
     1
  6
CONTINUOUS
 10
106.394989
 20
372.834412
 40
0.500000
 50
269.999997
 51
0.000000
  0
LINE
  8
LC-003-002-----0
 62
     1
  6
CONTINUOUS
 10
81.394989
 20
394.334412
 11
81.394989
 21
372.334412
  0
LINE
  8
LC-003-002-----0
 62
     1
  6
CONTINUOUS
 10
80.894989
 20
393.834412
 11
81.394989
 21
393.834412
  0
LINE
  8
LC-003-002-----0
 62
     1
  6
CONTINUOUS
 10
80.894989
 20
372.834412
 11
81.394989
 21
372.834412
  0
CIRCLE
  8
LC-003-002-----0
 62
     1
  6
CONTINUOUS
 10
184.423965
 20
383.334412
 40
20.500000
  0
ENDSEC
  0
EOF
