  0
SECTION
  2
HEADER
  9
$LIMMIN
 10
232.964066
 20
59.642990
  9
$LIMMAX
 10
361.348724
 20
114.642990
  9
$EXTMIN
 10
232.964066
 20
59.642990
  9
$EXTMAX
 10
361.348724
 20
114.642990
  0
ENDSEC
  0
SECTION
  2
TABLES
  0
TABLE
  2
LTYPE
 70
     3
  0
LTYPE
  2
CONTINUOUS
 70
    64
  3
Ausgezogene Linie
 72
    65
 73
     0
 40
0.0
  0
LTYPE
  2
DASHED
 70
    64
  3
__ __ __ __ __ __ __ __ __ __ __ __ __ __ __
 72
    65
 73
     2
 40
0.75
 49
0.5
 49
-0.25
  0
LTYPE
  2
DASHDOT
 70
    64
  3
__ . __ . __ . __ . __ . __ . __ . __ . __ . __
 72
    65
 73
     4
 40
1.0
 49
0.5
 49
-0.25
 49
0.0
 49
-0.25
  0
ENDTAB
  0
TABLE
  2
LAYER
 70
     4
  0
LAYER
  2
LC-003-002-----0
 70
    64
 62
     7
  6
CONTINUOUS
  0
LAYER
  2
LC-005-002-RND-0
 70
    64
 62
     7
  6
CONTINUOUS
  0
LAYER
  2
LC-004-006-----0
 70
    64
 62
     7
  6
CONTINUOUS
  0
LAYER
  2
LC-006-012-----0
 70
    64
 62
     7
  6
CONTINUOUS
  0
ENDTAB
  0
TABLE
  2
STYLE
 70
     1
  0
STYLE
  2
TXT8
 70
    64
 40
0.0
 41
1.0
 50
0.0
 71
     0
 42
3.500000
  3
TXT8
  4

  0
ENDTAB
  0
ENDSEC
  0
SECTION
  2
BLOCKS
  0
ENDSEC
  0
SECTION
  2
ENTITIES
  0
LINE
  8
LC-005-002-RND-0
 62
     2
  6
DASHDOT
 10
232.964066
 20
87.142990
 11
361.348724
 21
87.142990
  0
LINE
  8
LC-003-002-----0
 62
     1
  6
CONTINUOUS
 10
260.577972
 20
114.642990
 11
335.577972
 21
114.642990
  0
LINE
  8
LC-003-002-----0
 62
     1
  6
CONTINUOUS
 10
260.577972
 20
59.642990
 11
335.577972
 21
59.642990
  0
LINE
  8
LC-003-002-----0
 62
     1
  6
CONTINUOUS
 10
259.077972
 20
113.142990
 11
259.077972
 21
61.142990
  0
LINE
  8
LC-003-002-----0
 62
     1
  6
CONTINUOUS
 10
337.077972
 20
113.142990
 11
337.077972
 21
61.142990
  0
ARC
  8
LC-003-002-----0
 62
     1
  6
CONTINUOUS
 10
260.577972
 20
113.142990
 40
1.500000
 50
90.000003
 51
180.000009
  0
ARC
  8
LC-003-002-----0
 62
     1
  6
CONTINUOUS
 10
260.577972
 20
61.142990
 40
1.500000
 50
180.000009
 51
269.999997
  0
ARC
  8
LC-003-002-----0
 62
     1
  6
CONTINUOUS
 10
335.577972
 20
61.142990
 40
1.500000
 50
269.999997
 51
0.000000
  0
ARC
  8
LC-003-002-----0
 62
     1
  6
CONTINUOUS
 10
335.577972
 20
113.142990
 40
1.500000
 50
0.000000
 51
90.000003
  0
LINE
  8
LC-003-002-----0
 62
     1
  6
CONTINUOUS
 10
238.093948
 20
107.142990
 11
259.077972
 21
107.142990
  0
LINE
  8
LC-003-002-----0
 62
     1
  6
CONTINUOUS
 10
237.564102
 20
67.142990
 11
259.077972
 21
67.142990
  0
LINE
  8
LC-006-012-----0
 62
     2
  6
CONTINUOUS
 10
237.564102
 20
67.142990
 11
238.982834
 21
73.587883
  0
LINE
  8
LC-006-012-----0
 62
     2
  6
CONTINUOUS
 10
238.982834
 20
73.587883
 11
237.627426
 21
92.802490
  0
LINE
  8
LC-006-012-----0
 62
     2
  6
CONTINUOUS
 10
237.627426
 20
92.802490
 11
238.093948
 21
107.142990
  0
LINE
  8
LC-006-012-----0
 62
     2
  6
CONTINUOUS
 10
355.851318
 20
67.142990
 11
354.960297
 21
76.499069
  0
LINE
  8
LC-006-012-----0
 62
     2
  6
CONTINUOUS
 10
354.960297
 20
76.499069
 11
356.799103
 21
94.349052
  0
LINE
  8
LC-006-012-----0
 62
     2
  6
CONTINUOUS
 10
356.799103
 20
94.349052
 11
355.383850
 21
107.142990
  0
LINE
  8
LC-004-006-----0
 62
     2
  6
DASHED
 10
259.077972
 20
107.142990
 11
337.077972
 21
107.142990
  0
LINE
  8
LC-003-002-----0
 62
     1
  6
CONTINUOUS
 10
337.077972
 20
107.142990
 11
355.383850
 21
107.142990
  0
LINE
  8
LC-004-006-----0
 62
     2
  6
DASHED
 10
259.077972
 20
67.142990
 11
337.077972
 21
67.142990
  0
LINE
  8
LC-003-002-----0
 62
     1
  6
CONTINUOUS
 10
337.077972
 20
67.142990
 11
355.851318
 21
67.142990
  0
ENDSEC
  0
EOF
