  0
SECTION
  2
HEADER
  9
$LIMMIN
 10
59.462730
 20
165.861725
  9
$LIMMAX
 10
128.354004
 20
190.861725
  9
$EXTMIN
 10
59.462730
 20
165.861725
  9
$EXTMAX
 10
128.354004
 20
190.861725
  0
ENDSEC
  0
SECTION
  2
TABLES
  0
TABLE
  2
LTYPE
 70
     3
  0
LTYPE
  2
CONTINUOUS
 70
    64
  3
Ausgezogene Linie
 72
    65
 73
     0
 40
0.0
  0
LTYPE
  2
DASHED
 70
    64
  3
__ __ __ __ __ __ __ __ __ __ __ __ __ __ __
 72
    65
 73
     2
 40
0.75
 49
0.5
 49
-0.25
  0
LTYPE
  2
DASHDOT
 70
    64
  3
__ . __ . __ . __ . __ . __ . __ . __ . __ . __
 72
    65
 73
     4
 40
1.0
 49
0.5
 49
-0.25
 49
0.0
 49
-0.25
  0
ENDTAB
  0
TABLE
  2
LAYER
 70
     4
  0
LAYER
  2
LC-003-002-----0
 70
    64
 62
     7
  6
CONTINUOUS
  0
LAYER
  2
LC-005-002-RND-0
 70
    64
 62
     7
  6
CONTINUOUS
  0
LAYER
  2
LC-004-006-----0
 70
    64
 62
     7
  6
CONTINUOUS
  0
LAYER
  2
LC-006-012-----0
 70
    64
 62
     7
  6
CONTINUOUS
  0
ENDTAB
  0
TABLE
  2
STYLE
 70
     1
  0
STYLE
  2
TXT8
 70
    64
 40
0.0
 41
1.0
 50
0.0
 71
     0
 42
3.500000
  3
TXT8
  4

  0
ENDTAB
  0
ENDSEC
  0
SECTION
  2
BLOCKS
  0
ENDSEC
  0
SECTION
  2
ENTITIES
  0
LINE
  8
LC-005-002-RND-0
 62
     2
  6
DASHDOT
 10
59.462730
 20
178.361725
 11
128.354004
 21
178.361725
  0
LINE
  8
LC-003-002-----0
 62
     1
  6
CONTINUOUS
 10
76.179436
 20
190.861725
 11
109.679436
 21
190.861725
  0
LINE
  8
LC-003-002-----0
 62
     1
  6
CONTINUOUS
 10
76.179436
 20
165.861725
 11
109.679436
 21
165.861725
  0
LINE
  8
LC-003-002-----0
 62
     1
  6
CONTINUOUS
 10
75.429436
 20
190.111725
 11
75.429436
 21
166.611725
  0
LINE
  8
LC-003-002-----0
 62
     1
  6
CONTINUOUS
 10
110.429436
 20
190.111725
 11
110.429436
 21
166.611725
  0
ARC
  8
LC-003-002-----0
 62
     1
  6
CONTINUOUS
 10
76.179436
 20
190.111725
 40
0.750000
 50
90.000003
 51
180.000009
  0
ARC
  8
LC-003-002-----0
 62
     1
  6
CONTINUOUS
 10
76.179436
 20
166.611725
 40
0.750000
 50
180.000009
 51
269.999997
  0
ARC
  8
LC-003-002-----0
 62
     1
  6
CONTINUOUS
 10
109.679436
 20
166.611725
 40
0.750000
 50
269.999997
 51
0.000000
  0
ARC
  8
LC-003-002-----0
 62
     1
  6
CONTINUOUS
 10
109.679436
 20
190.111725
 40
0.750000
 50
0.000000
 51
90.000003
  0
LINE
  8
LC-003-002-----0
 62
     1
  6
CONTINUOUS
 10
61.573792
 20
186.361725
 11
75.429436
 21
186.361725
  0
LINE
  8
LC-003-002-----0
 62
     1
  6
CONTINUOUS
 10
61.310917
 20
170.361725
 11
75.429436
 21
170.361725
  0
LINE
  8
LC-006-012-----0
 62
     2
  6
CONTINUOUS
 10
61.310917
 20
170.361725
 11
62.026890
 21
174.266937
  0
LINE
  8
LC-006-012-----0
 62
     2
  6
CONTINUOUS
 10
62.026890
 20
174.266937
 11
61.573792
 21
182.011627
  0
LINE
  8
LC-006-012-----0
 62
     2
  6
CONTINUOUS
 10
61.573792
 20
182.011627
 11
61.573792
 21
186.361725
  0
LINE
  8
LC-006-012-----0
 62
     2
  6
CONTINUOUS
 10
125.780945
 20
170.361725
 11
126.294472
 21
173.815094
  0
LINE
  8
LC-006-012-----0
 62
     2
  6
CONTINUOUS
 10
126.294472
 20
173.815094
 11
125.529495
 21
182.124588
  0
LINE
  8
LC-006-012-----0
 62
     2
  6
CONTINUOUS
 10
125.529495
 20
182.124588
 11
125.995605
 21
186.361725
  0
LINE
  8
LC-004-006-----0
 62
     2
  6
DASHED
 10
75.429436
 20
186.361725
 11
110.429436
 21
186.361725
  0
LINE
  8
LC-003-002-----0
 62
     1
  6
CONTINUOUS
 10
110.429436
 20
186.361725
 11
125.995605
 21
186.361725
  0
LINE
  8
LC-004-006-----0
 62
     2
  6
DASHED
 10
75.429436
 20
170.361725
 11
110.429436
 21
170.361725
  0
LINE
  8
LC-003-002-----0
 62
     1
  6
CONTINUOUS
 10
110.429436
 20
170.361725
 11
125.780945
 21
170.361725
  0
ENDSEC
  0
EOF
